Guitaretab - guitar tabs
Song name
# A B C D E F G H I J K L M N O P Q R S T U V W X Y Z

Corrosion Of Conformity - Intervention tab

Band- Corrosion Of Conformity
Song- Intervention

TUNING: Standard Tuning

INTRO:
e |----------------------------------------------------------|
B |----------------------------------------------------------|
G |--0-2-0-0--3-0-0--2-0-0--3-0-0--2-0-0--3-0-0---/6--5------|
D |----------------------------------------------------------|
A |----------------------------------------------------------|
E |----------------------------------------------------------| x4

e |----------------------------------------------------------|
B |----------------------------------------------------------|
G |---6-6-6-6-6-6-6-6/7-7-7-7-7------------------------------|
D |----------------------------------------------------------|
A |----------------------------------------------------------|
E |----------------------------------------------------------|

Played at the "...Intervention!..." part:
e |----------------------------------------------------------|
B |----------------------------------------------------------|
G |----------------------------------------------------------|
D |--5--2--2--2--2--2--2--2--2-----3-------------------------|
A |--5--2--2--2--2--2--2--2--2-----3-------------------------|
E |--3--0--0--0--0--0--0--0--0-----1-------------------------|

VERSE:
e |----------------------------------------------------------|
B |----------------------------------------------------------|
G |---------4----------5--------4--------5-------------------|
D |---------4----------5--------4--------5-------------------|
A |---------2----------3--------2--------3-------------------|
E |--0-0-0------0-0-0-----0-0-0----0-0-0---------------------|

e |----------------------------------------------------------|
B |----------------------------------------------------------|
G |---------4-------5----------------------------------------|
D |---------4-------5---------5--4--3------------------------|
A |---------2-------3---------5--4--3------------------------|
E |--0-0-0----0-0-0---0-0-0---3--2--1------------------------|

e |----------------------------------------------------------|
B |----------------------------------------------------------|
G |----------------------------------------------------------|
D |-----------5--4--3----------------------------------------|
A |-----------5--4--3----------------------------------------|
E |---0-0-0---3--2--1----------------------------------------| x4
[ Tab from: http://www.guitaretab.com/c/corrosion-of-conformity/139231.html ]
Played at the ...Intervention!!!... part:
e |----------------------------------------------------------|
B |----------------------------------------------------------|
G |----------------------------------------------------------|
D |---8------------------------------------------------------|
A |---8------------------------------------------------------|
E |---6------------------------------------------------------|

If you can understand the lyrics, this riff is at the
"...All the millions spent in aid..." part
e |----------------------------------------------------------|
B |----------------------------------------------------------|
G |----------------------------------------------------------|
D |-------------------9---------------------10-\9------------|
A |-------------------9---------------------10-\9------------|
E |--0-0-0--0-0-0-0---7---0-0-0--0-0-0-0----8--\7------------| x2

e |----------------------------------------------------------|
B |----------------------------------------------------------|
G |------------------6------------------7\6------------------|
D |------------------6------------------7\6------------------|
A |------------------4------------------5\4------------------|
E |--4-4-4--4-4-4-4-----4-4-4--4-4-4-4-----------------------|

If you can understand the lyrics, this riff is at the
"Finalize a child's last breath..." part
e |----------------------------------------------------------|
B |----------------------------------------------------------|
G |----------------------------------------------------------|
D |--7\6--------4--------------------------------------------|
A |--7\6--------4--------------------------------------------|
E |--5\4---0----2---0-0--------------------------------------| x3

Played at the ...Intervention!!!... part:
e |----------------------------------------------------------|
B |----------------------------------------------------------|
G |----------------------------------------------------------|
D |---8------------------------------------------------------|
A |---8------------------------------------------------------|
E |---6------------------------------------------------------|

Played at the "...War-monger leaders...in search of glory..." part
e |----------------------------------------------------------|
B |----------------------------------------------------------|
G |------------------------------------------9---------------|
D |------10----7-------10\---7---8/9---9-----9---------------|
A |------10----7-------10\---7---8/9---9-----7---------------|
E |--8-8--8----5---8-8--8\---5---6/7---7---------------------|
Related for Intervention tab