Song name
# A B C D E F G H I J K L M N O P Q R S T U V W X Y Z

Corrosion Of Conformity - Senor Limpio tab

Tsb: Lopez017
Album: Deliverance.
Band: Corrosion Of Conformity.


 fb =  full bend  |  ph = pinch harmonic  |  ^ = half step bend
   . = palm mute   |  ~ = vibrato          | pb  = pre-bend


main riff
d-----------------------|------------------|
A-----------------------|------------------|    (high note
F-----------------------|------------------|   on 5 may bent
C-----------------------|------------------|    up to from
G---------------5-------|------------------|     3 or 4)
C--0--0-0-3p0-0---0-6-5-|-0--0-0-3p0-0-0---|
      . .     .              . .     . .
fills
d-------------------|--------------|-------------|
A-------------------|--------------|-------------|
F-------------------|--------------|-------------|
G-------------------|--------------|-------------|
G-------------------|--------------|----0-0-0----|
C---0-0-0-0-(ph)3~--|---0-3-0-5~---|----0-0-0----|
                                        . . .
       first           second          between verses

pre-chorus riff
d-------------------------|--------------|---------------|
A-------------------------|--------------|---------------|
F---------------------(ph)|--------------|---------------|
G----------------------3~-|--------------|---------------|
G---3h5-5-0-3h5-5--3h5----|--3h5-5-0-3h5-|5-3-0----------|
C-------------------------|--------------|------6-5-3~---|
          .                        .
    beginning                 middle          end(fills substituted)
fills
d-----------------|------------|
A-----------------|------------|
F-----------------|------------|
G---ph5^---ph3~---|-----5~~~---|
G--------5--------|------------|
C-----------------|------------|
         .
     first           second

chorus riff
d-------------------------------------|
A-------------------------------------|
F-------------------------------------|
C-------------------------------------|
G---5-5--5-5^-3--5-5^-3--5-5^-3--5-6--|
C---5-5--5-5^-3--5-5^-3--5-5^-3--5-6--|
         .       .       .
d----------------------------------------|
A----------------------------------------|
F----------------------------------------|
C----------------------------------------|
G---0-0--0-3--0-0--0-5--0-0--0-3--6-5-3--|
C---0-0--0-3--0-0--0-5--0-0--0-3--6-5-3--|
    . .       . .       . .


under solo is just this part of main riff repeated
e-----------------------|
B-----------------------|
G-----------------------|
D-----------------------|
A--------------5--------|
C-0--0-0-3p0-0---0-6-5--|
under pre-chorus part of solo is the same riff without fills


solo

woody
d---------------------------------------------------------|
A---------------------------------------------------------|
F----------------------------------12fb-----------12/14---|
G--12p10-----10h12~~---12-12p10-----------12--15----------|
G-------------------------------12------------------------|
C---------------------------------------------------------|

d--------------------------15fb-----------------------------------------|
A-----------------14fb~~~------x\x\-------------------------------------|
F--12p10----10-12--------------x\x\-------------10----12p10----10--13~--|
G--------12--------------------x\x\0-------10-12----12-------12---------|
G------------------------------x\x\0----12------------------------------|
C------------------------------x\x\0------------------------------------|
pepper
d------------------------------------------------------|
A------------------------------------------------------|
F--12^--12h13--12--10------pb12phr10--10----10---------|
G---------------------12-----------------12------------|
G----------------------------------------------12-11---|
C------------------------------------------------------|

d-------------------------------------------|
A-------------------------------------------|
F--------------------------------10--10-----|
G------5^------------------10h12--------12--|
G--5-8----8-5--------10h12------------------|
C---------------10h12-----------------------|
   . .
d----------------------10-------13fb--15fbr-13-13fbr------------|
A--13fb-(14)r13--10-13----13-10----------------------15-13fb~---|
F---------------------------------------------------------------|
G---------------------------------------------------------------|
G---------------------------------------------------------------|
C---------------------------------------------------------------|
both
d-----------------------------------------------|
A-----------------------------------------------|  (hold the bend
F-----10-12fb-(14^ph14^)14r12-10--------10-12^--|  and give it an
G--12----------------------------12--12---------|    extra pinch
G-----------------------------------------------|   harmonic bend)
C-----------------------------------------------|

d------------------------------------|
A--------13fb-13-10-13-13fb----------|
F-----10--------------------12-------|
G--12--------------------------12----|
G------------------------------------|
C------------------------------------|
Tap to rate this tab
# A B C D E F G H I J K L M N O P Q R S T U V W X Y Z