Guitaretab - guitar tabs
Song name
# A B C D E F G H I J K L M N O P Q R S T U V W X Y Z

Corrosion Of Conformity - Albatross tab

e|--------------------------------------------------------|
b|--------------------------------------------------------|
g|-x-3/5-5-5--x-3-x-3/5-5---x-3/5-5-5--x-8-x-10-(11)------|
d|-x-3/5-5-5--x-1-x-3/5-5---x-3/5-5-5--x-8-x-10-(11)------|
a|-x-1/3-3-3--x-1-x-1/3-3---x-1/3-3-3--x-6-x--8-(9)-------|
e|--------------------------------------------------------|

e|--------------------------------------------------------|
b|--------------------------------------------------------|
g|-x-3/5-5-5--x-3-x-3/5-5---x-8-8-x--3-3------------------|
d|-x-3/5-5-5--x-1-x-3/5-5---x-8-8-x--3-3------------------|
a|-x-1/3-3-3--x-1-x-1/3-3---x-6-6-x--1-1------------------|
e|--------------------------------------------------------|

after playing this the first time a 2nd guitar plays this which leads into the first 
a second time
e|--------------------------------------------------------|
b|--------------------------------------------------------|
g|--------------------------------------------------------|
d|----------------------------------------1-1-3-3/5-1-----|
a|----------------------------------------------------3-1-|
e|--------------------------------------------------------|

im not sure how many times you play that, i think its eight times

but the last time you play it before the next riff play this instead of the last part
[ Tab from: http://www.guitaretab.com/c/corrosion-of-conformity/3974.html ]
e|---------------------------------------------------------------|
b|---------------------------------------------------------------|
g|-x-3/5-5-5--x-3-x-3/5-5---x-8-8-x--3-3--3-3-4-4-5-5-5----------|
d|-x-3/5-5-5--x-1-x-3/5-5---x-8-8-x--3-3--3-3-4-2-5-5-5----------|
a|-x-1/3-3-3--x-1-x-1/3-3---x-6-6-x--1-1--1-1-2-2-3-3-3----------|
e|---------------------------------------------------------------|

then...

e|--------------------------------------------------------|
b|--------------------------------------------------------|
g|--------------------------------------------------------|
d|----------1--1---------------------------1------1-------|
a|--3-3p1--------3-----3p1-1/3-3-1--2h3-3--1--3p1---3-1---|
e|--------5-------------------------2h3-3--1--------------|

but the last itme you play this riff don't play the last 5 notes, instead play the fill below

then another fill that leads into the first riff again
im not sure if this is right but it sounds like it
e|------------------------------------------------------------|
b|------------------------------------------------------------|
g|------------------------------------------------------------|
d|---------------------------------------------3-5-5b-(8)-5~--|
a|------------------------------------------------------------|
e|------------------------------------------------------------|

then the first riff
idon't know how many times
then repeat the second riff

thats all i know right now, i might try and finish it sometime but for now thats it
Related for Albatross tab
×
Albatross