Song name
# A B C D E F G H I J K L M N O P Q R S T U V W X Y Z

Corrosion Of Conformity - King Of The Rotton tab

Band - Corrosion Of Conformity
Song - King Of The Rotton

Tuning: D A F C G C.

Intro:
D|----------------------------|
A|----------------------------|
F|----------------------------|
C|----------------------------|
G|----------------------------|
C|--0-2-2-2--2h3p2--2-0-0-0---|

Verse:
D|----------------------------|----------------------|
A|----------------------------|----------------------|
F|----------------------------|----------------------|
C|----------------------------|----------------------|
G|--0-2-2-2--2h3p2--2--0-0-0--|--0-2-2-2--7-7-7------|
C|--0-2-2-2--2h3p2--2--0-0-0--|--0-2-2-2--7-7-7------|

Chorus:
D|------------------|--------------------------------|
A|------------------|--------------------------------|
F|------------------|--------------------------------|
C|--5-5-8h10p8-7-8--|--10-8-10-8-10-8-10-8--5-5-5--5-|
G|--5-5-8h10p8-7-8--|--10-8-10-8-10-8-10-8--5-5-5--5-|
C|--5-5-8h10p8-7-8--|--10-8-10-8-10-8-10-8--5-5-5--5-|

During Solo:
D|----------------------------|
A|----------------------------|
F|----------------------------|
C|----------------------------|
G|--0-2-0-2-2-5--0-2-2-2-2--5-|
C|--0-2-0-2-2-5--0-2-2-2-2--5-|
Tap to rate this tab
# A B C D E F G H I J K L M N O P Q R S T U V W X Y Z