Guitaretab - guitar tabs
Song name
# A B C D E F G H I J K L M N O P Q R S T U V W X Y Z

Corrosion Of Conformity - Goodbye Windows tab

Band- Corrosion Of Conformity
Song- Goodbye Windows

TUNING: Tune 1 whole step down (D)

INTRO:
d |-----------------------------------------------------|
A |-----------------------------------------------------|
F |-----------------------------------------------------|
C |-----------------------------------------------------|
G |-4h5p4p2-44h5p4p2-----------------------------------|
D |--------------------0--------------------------------|

d |-----------------------------------------------------|
A |-----------------------------------------------------|
F |-6---4--6---9---X-X--6---4--6-X-9---9-9--X-X---------|
C |-6---4--6---9---X-X--6---4--6-X-9---9-9--X-X---------|
G |-4---2--4---7---X-X--4---2--4-X-7---7-7--X-X---------|
D |-----------------------------------------------------|

VERSE:
RIFF A:
d |-----------------------------------------------------|
A |-----------------------------------------------------|
F |-6-6h7p6p4--6h7p6p4-3-4-3----------6h7-11-13-13-13b--|
C |--------------------------4-6-4-6--------------------|
G |-----------------------------------------------------|
D |-----------------------------------------------------|

First time RIFF A is played, play this at the end:
d |-----------------------------------------------------|
A |-----------------------------------------------------|
F |-11-13b-118h9p8---8\~~------------------------------|
C |-----------------------------------------------------|
G |-----------------------------------------------------|
D |-----------------------------------------------------|
[ Tab from: http://www.guitaretab.com/c/corrosion-of-conformity/65061.html ]
Second time RIFF A is played, follow up with this:
d |-----------------------------------------------------|
A |-11~~------------------------------------------------|
F |-11~~---98h9p6\~~-----------------------------------|
C |-----------------------------------------------------|
G |-----------------------------------------------------|
D |-----------------------------------------------------|

CHORUS:
d |-----------------------------------------------------|
A |-----------------------------------------------------|
F |-6---4--6---9---X-X--6---4--6-X-9---9-9--X-X---------|
C |-6---4--6---9---X-X--6---4--6-X-9---9-9--X-X---------|
G |-4---2--4---7---X-X--4---2--4-X-7---7-7--X-X---------|
D |-----------------------------------------------------|

This is played at the ...Your shining son... part,

d |--------------------X--------------------------------|
A |--------------------X--------------------------------|
F |-6----------6-6--X----X-6----------------------------|
C |-6--5----5\-6-6--X----X-6----------------------------|
G |-4--5----5\-4-4---------4----------------------------|
D |----3----3\------------------------------------------|

After the last CHORUS in the song play this,
d |-----------------------------------------------------|
A |-7---7-7-7--7--7--7--7--7-7-5-5----------------------|
F |-6---6-6-6--6--6--6--6--6-6-4-4----------------------|
C |-4---4-4-4--4--4--4--4--4-4-2-2----------------------|
G |-----------------------------------------------------|
D |-----------------------------------------------------| x3

d |-----------------------------------------------------|
A |-----------------------------------------------------|
F |-----------------------------------------------------|
C |------------7----------------------------------------|
G |-99h10p9p7---9-9h10p9p7-----------------------------|
D |--------------------------9\-------------------------|

OUTRO:
d |-----------------------------------------------------|
A |-----------------------------------------------------|
F |-----------------------------------------------------|
C |-----------------------------------------------------|
G |-4h5p4p2-44h5p4p2-----------------------------------|
D |--------------------0--------------------------------|


Related for Goodbye Windows tab