Guitaretab - guitar tabs
Song name
# A B C D E F G H I J K L M N O P Q R S T U V W X Y Z

Corrosion Of Conformity - Hungry Child tab

Band- Corrosion of Conformity
Song- Hungry Child

TUNING: Standard Tuning

VERSE:
e |-----------------------------------------------------|
B |-----------------------------------------------------|
G |-----------------------------------------------------|
D |---------------------------------------6/7-----------|
A |----7\4----------------4---4/5----4/5----------------|
E |----5\2---2--2--2--2---2---2/3-----------------------| x4
	     [PALM MUTED]

CHORUS:
e |-----------------------------------------------------|
B |-----------------------------------------------------|
G |-----------------------------------------------------|
D |----------7/9------------10\9----7/9-----------------|
A |---7/9----5/7--7--7--7----8\7----5/7---7--7--7-------|
E |---5/7-----------------------------------------------|
	     [PM----]	    [PM---]

Played after the last CHORUS riff:
e |-----------------------------------------------------|
B |-----------------------------------------------------|
G |-----------------------------------------------------|
D |--10\9--7/9----------12------------------------------|
A |---8\7--5/7---7-7----10---10-10-10-10-10-10----------|
E |-----------------------------------------------------|
                             [PALM MUTED-----]
[ Tab from: http://www.guitaretab.com/c/corrosion-of-conformity/65064.html ]
This is at the "...powerfully twisting..." part:
e |-----------------------------------------------------|
B |-----------------------------------------------------|
G |-----------------------------------------------------|
D |------------7/10--1010------------------------------|
A |----7/9-----5/8---8---8------------------------------|
E |----5/7----------------------------------------------| x2

e |-----------------------------------------------------|
B |-----------------------------------------------------|
G |-----------------------------------------------------|
D |------------7/10--10--10----9------------------------|
A |----7/9-----5/8---8---8-----7------------------------|
E |----5/7----------------------------------------------|

This is at the "...we have life's meaning..." part:
e |-----------------------------------------------------|
B |-----------------------------------------------------|
G |-----------------------------------------------------|
D |-------9----------------------9----------------------|
A |-------7-----8--7--8----------7------7--8--7---------|
E |--0-0--------6--5--6-----0-0---------5--6--5---------|

e |-----------------------------------------------------|
B |-----------------------------------------------------|
G |-----------------------------------------------------|
D |-------9----------------------9-------------7--------|
A |-------7-----8--7--8----------7------7--8---5--------|
E |--0-0--------6--5--6-----0-0---------5--6------------|

OUTRO:
e |-----------------------------------------------------|
B |-----------------------------------------------------|
G |-----------------------------------------------------|
D |-----------------------------------------------------|
A |---7\4----7\4----------------------------------------|
E |---5\2----5\2----------------------------------------|
Related for Hungry Child tab