Guitaretab - guitar tabs
Song name
# A B C D E F G H I J K L M N O P Q R S T U V W X Y Z

Corrosion Of Conformity - Jim Beam And The Coon Ass tab

Band- Corrosion Of Conformity
Song- Jim Beam And The Coon Ass

TUNING: Tune 1 whole step down (D)

INTRO:
Aside from the conversation and noise, this is what is played
d |----------------------------------------------------------|
A |-----2-2----------2-2----------2-2-2-2-----2-2-2-2--------|
F |-----2-2----------2-2----------2-2-2-2-----2-2-2-2--------|
C |-----2-2----------2-2----------2-2-2-2-----2-2-2-2--------|
G |-0--------------0------------0-----------0----------------|
D |---------0-0-3b-------0-0-3b-----------0-----------0------|

VERSE:
d |---5---5-5-5---5-5-5---5-5-5------------------------------|
A |---x---x-x-x---x-x-x---x-x-x------------------------------|
F |---5---5-5-5---5-5-5---5-5-5------------------------------|
C |---4---4-4-4---4-4-4---4-4-4------------------------------|
G |-5-------------------5------------------------------------|
D |----------------------------------------------------------|
[ Tab from: http://www.guitaretab.com/c/corrosion-of-conformity/65066.html ]
CHORUS:
d |----------------------------------------------------------|
A |----------------------------------------------------------|
F |---2-2----2----2-2----2-----2-----2-----------------------|
C |---2-2----2----2-2----2-----2-----2-----------------------|
G |-0--------0--0--------0-----0-----0-----------------------|
D |-------3b----------3b----3b----3b-------------------------|

d |--7--7--7-7-7--7-6-5--------------------------------------|
A |--x--x--x-x-x--x-x-x--------------------------------------|
F |--7--7--7-7-7--7-6-5--------------------------------------|
C |--6--6--6-6-6--6-5-4--------------------------------------|
G |--7----------------5--------------------------------------|
D |----------------------------------------------------------|

This part is played after the ...Take it home Johnny...
d |-------------------------------------------5--5-5--5------|
A |-------------------------------------------x--x-x--x------|
F |-----------------2-------------------2-----5--5-5--5------|
C |-----------------2-------------------2-----4--4-4--4------|
G |-3b-0-3b-0-3b-3b-0---3b-0-3b-0-3b-3b-0---5----------------|
D |----------------------------------------------------------|
Related for Jim Beam And The Coon Ass tab