Song name
# A B C D E F G H I J K L M N O P Q R S T U V W X Y Z

Corrosion Of Conformity - Long Whip Big American tab

Band- Corrosion Of Conformity
Song- Long Whip Big American

Intro

D|-------------------------------------------|
A|-------------------------------------------|
F|--2-2-2-2-2-2-2--5-5-5--7-7-7/8\7----------|
C|--2-2-2-2-2-2-2--5-5-5--7-7-7/8\7----------|
G|--0-0-0-0-0-0-0--3-3-3--5-5-5/6\5----------|
C|-------------------------------------------|

Verse

D|---------------------------------------------------------------------|
A|---------------------------------------------------------------------|
F|---------------------------------------------------------------------|
C|---------------------------------------------------5-5-5--4-4-4-4----|
G|----0-0-0-0-0-0-0-0-3-3-3-5-5-5/6\5---0-0-0-0-0-0--5-5-5--4-4-4-4----|
C|--6---------------------------------6--------------5-5-5--4-4-4-4----|

Pre Chorus

D|----------------------------------------------|
A|----------------------------------------------|
F|----------------------------------------------|
C|--7-7-7-7-7-7-7--10/12--10/12--4/5--5/6-------|
G|--7-7-7-7-7-7-7--10/12--10/12--4/5--5/6-------|
C|--7-7-7-7-7-7-7--10/12--10/12--4/5--5/6-------|

Chorus

D|----------------|-----------------------------|
A|----------------|-----------------------------|
F|--2-2-5--5/7\5--|--9-7-5-7-5-5-7-5------------|
C|--2-2-5--5/7\5--|--9-7-5-7-5-5-7-5--5-7-------|
G|--0-0-3--3/5\3--|--7-5-3-5-3-3-5-3--5-7-------|
C|----------------|-------------------5-7-------|
Tap to rate this tab
# A B C D E F G H I J K L M N O P Q R S T U V W X Y Z