Song name
# A B C D E F G H I J K L M N O P Q R S T U V W X Y Z

Corrosion Of Conformity - Senor Limpio tab

Band- Corrosion of Conformity
Song- Senor Limpio

TUNING: Tune 1 whole step down (D)

INTRO:
d |---------------------------------------------------|
A |---------------------------------------------------|
F |--------------7------------------------------------|
C |------------------5h7--5---------------------------|
G |-5--5--5--8-5---5--------5--5--5--8-5--5-8h10p8/---|
D |---------------------------------------------------|
               **** FALSE HARMONIC

d |---------------------------------------------------|
A |---------------------------------------------------|
F |--------------7------------------------------------|
C |------------------5h7--5-----------------5h7p5-----|
G |-5--5--5--8-5---5--------5--5--5--8-5--5-----------|
D |---------------------------------------------------|

d |---------------------------------------------------|
A |---------------------------------------------------|
F |--------------7------------------------------------|
C |------------------5h7--5---------------------------|
G |-5--5--5--8-5---5--------5--5--5--8-5--------------|
D |---------------------------------------------------|

VERSE:
d |---------------------------------------------------|
A |---------------------------------------------------|
F |--------------7------------------------------------|
C |------------------5h7--5-----------------5h7p5-----|
G |-5--5--5--8-5---5--------5--5--5--8-5--5-----------|
D |---------------------------------------------------|

d |---------------------------------------------------|
A |---------------------------------------------------|
F |--------------7------------------------------------|
C |------------------5h7--5---------------------------|
G |-5--5--5--8-5---5--------5--5--5--8-5--------------|
D |---------------------------------------------------|

CHORUS:
d |---------------------------------------------------|
A |----------------------8----------------------------|
F |-5--7-7---5-7-7--5--7----5--7-7--5-7-7-7-5---------|
C |-------------------------------------------7-5-----|
G |-----------------------------------------------5-8-|
D |---------------------------------------------------|
                       **** FALSE HARMONIC

d |---------------------------------------------------|
A |----------------------8----------------------------|
F |-5--7-7---5-7-7--5--7----5--7-7--5-7-7-7-5---------|
C |-------------------------------------------7-5-----|
G |-----------------------------------------------5-8-|
D |---------------------------------------------------|
                               ***    *****
	                  FALSE HARMONIC

BRIDGE:
d |---------------------------------------------------|
A |---------------------------------------------------|
F |---------------------------------------------------|
C |-5/7--7--5--5/7--7--5--5/7--7--5-----3-------------|
G |-3/5--5--3--3/5--5--3--3/5--5--3--3-----3--3--5----|
D |---------------------------------------------------|

d |---------------------------------------------------|
A |---------------------------------------------------|
F |---------------------------------------------------|
C |-7--7--7-10--7--7--7-10--7--5----------------------|
G |-5--5--5-8---5--5--5-8--------3--------------------|
D |---------------------------------------------------|
   [PALM MUTED-----------]
Tap to rate this tab
 
# A B C D E F G H I J K L M N O P Q R S T U V W X Y Z