Guitaretab - guitar tabs
Song name
# A B C D E F G H I J K L M N O P Q R S T U V W X Y Z

Corrosion Of Conformity - Take What You Want tab

Song:    Take What You Want
Band:    Corrosion of Conformity
Album:   Americas Volume Dealers
Tuning:  Standard - EADGBe


Iím not sure if this is totally correct but it sounds pretty good to me.
Also, there are no other tabs for this song and it is my favourite COC
song. Any suggestion/corrections please email crisp_packet@hotmail.com.
Thanks and enjoy.


Intro:


    Em                               C#m              
G||--------------------------------|--------------------------------||
D||--------------------------------|--------------------------------||
A||-7~-----------------------------|-4~-----------------------------||
E||--------------------------------|--------------------------------||
 ||                                                                 ||
 ||                                                                 ||
 ||                                                                 ||
 || Em                               C#m                            ||
e||--------------------------------|--------------------------------||
B||--------------------------------|--------------------------------||
G||--------------------------------|--------------------------------||
D||-------------------------5~-----|-------------------------5~-----||
A||---5-7---5-7---5-7---5-7--------|---5-7---5-7---5-7---5-7--------||
E||-0-----0-----0-----0------------|-0-----0-----0-----0------------||


    C                                Baug5                
G||--------------------------------|--------------------------------||
D||--------------------------------|--------------------------------||
A||-3~-----------------------------|-2~-----------------------------||
E||--------------------------------|--------------------------------||
 ||                                                                 ||
 ||                                                                 ||
 ||                                                                 ||
 || C                                Baug5                          ||
e||--------------------------------|--------------------------------||
B||--------------------------------|--------------------------------||
G||--------------------------------|--------------------------------||
D||-------------------------5~-----|--------------------------------||
A||---5-7---5-7---5-7---5-7--------|---5-7---5-7---5-7---5-7---5-7--||
E||-0-----0-----0-----0------------|-0-----0-----0-----0-----0------||


Verse:


    Em5               D5             C5                Baug5
e||--------------------------------|--------------------------------||
B||--------------------------------|--------------------------------||
G||--------------------------------|--------------------------------||
D||-x-x-9-x-x-9-x-x-9\77-7-7--7-7-7|-x-x-5-x-x-5-x-x-5-55-5-5--5-5-5||
A||-x-x-7-x-x-7-x-x-7\55-5-5--5-5-5|-x-x-3-x-x-3-x-x-3\22-2-2--2-2-2||
E||--------------------------------|--------------------------------||

   1. J-J-Just as long as we are here, standing tall for one more year...
   2. All the way, Iíve been up for a thousand days...

   A5                B5             C5                D5  
e||--------------------------------|--------------------------------||
B||--------------------------------|--------------------------------||
G||--------------------------------|--------------------------------||
D||--------------------------------|-x-x-5-x-x-5-x-x-5/77-7-7--7-7-7||
A||-x-x-7-x-x-7-x-x-7/99-9-9--9-9-9|-x-x-3-x-x-3-x-x-3/55-5-5--5-5-5||
E||-x-x-5-x-x-5-x-x-5/77-7-7--7-7-7|--------------------------------||

   ...I sing out loud and keep away the cold.
   ...but you canít cut me down when Iím old and grey.

    Em5               D5             C5                Baug5
e||--------------------------------|--------------------------------||
B||--------------------------------|--------------------------------||
G||--------------------------------|--------------------------------||
D||-x-x-9-x-x-9-x-x-9\77-7-7--7-7-7|-x-x-5-x-x-5-x-x-5-55-5-5--5-5-5||
A||-x-x-7-x-x-7-x-x-7\55-5-5--5-5-5|-x-x-3-x-x-3-x-x-3\22-2-2--2-2-2||
E||--------------------------------|--------------------------------||

   And when youíre blind and you canít see, realise itís them not me...
   And if you catch me on the move, you can come along or you can disapprove...

   A5                B5             C5                    
e||--------------------------------|--------------------------------||
B||--------------------------------|--------------------------------||
G||--------------------------------|------------------------Crazy---||
D||--------------------------------|-x-x-5-x-x-5-x-x-5/----effects--||
A||-x-x-7-x-x-7-x-x-7/99-9-9--9-9-9|-x-x-3-x-x-3-x-x-3/-------------||
E||-x-x-5-x-x-5-x-x-5/77-7-7--7-7-7|--------------------------------||

   ...I might be hard to find, you know it happens every time.
   ...I might be hard to find, you know it happens every time.


Lead Guitar fill during second verse:


e||---7.---------------------------||
B||-----------------8-8---5---8----||
G||--------------------------------||
D||--------------------------------||
A||--------------------------------||
E||--------------------------------||


Chorus:


    Em                               C#m                              
e||--------------------------------|--------------------------------||
B||--------------------------------|--------------------------------||
G||--------------------------------|--------------------------------||
D||-------------------------5~-----|-------------------------5~-----||
A||---5-7---5-7---5-7---5-7--------|---5-7---5-7---5-7---5-7--------||
E||-0-----0-----0-----0------------|-0-----0-----0-----0------------||

   When Iím tired I crawl, I canít stand to see you fall...
   When youíre wide and Iím awake, Iíve got time enough for days...
[ Tab from: http://www.guitaretab.com/c/corrosion-of-conformity/69851.html ]
    C                                Baug5                                
e||--------------------------------|--------------------------------||
B||--------------------------------|--------------------------------||
G||--------------------------------|--------------------------------||
D||-------------------------5~-----|--------------------------------||
A||---5-7---5-7---5-7---5-7--------|---5-7---5-7---5-7---5-7---5-7~-||
E||-0-----0-----0-----0------------|-0-----0-----0-----0-----0------||

   ...in years, they donít treat you like they used to.
   ...take-a what you want, it just might set you free.  (Not me.)


Bridge:


    A5                               G5
e||--------------------------------|--------------------------------||
B||--------------------------------|--------------------------------||
G||--------------------------------|--------------------------------||
D||1414-x-x1414-x-x1414-x-x1414-x-x|1212-x-x1212-x-x1212-x-x1212-x-x||
A||1212-x-x1212-x-x1212-x-x1212-x-x|1010-x-x1010-x-x1010-x-x1010-x-x||
E||--------------------------------|--------------------------------||

   Does it feel the same?           Does it feel the same?

    F#aug5                           F5
e||--------------------------------|--------------------------------||
B||--------------------------------|--------------------------------||
G||--------------------------------|--------------------------------||
D||1212-x-x1212-x-x1212-x-x1212-x-x|1010-x-x1010-x-x1010-x-x1010-x-x||
A||-9-9-x-x-9-9-x-x-9-9-x-x-9-9-x-x|-8-8-x-x-8-8-x-x-8-8-x-x-8-8-x-x||
E||--------------------------------|--------------------------------||

   Does it feel the same?           Does it feel the sa-me?


Repeat Intro.


Bridge Cnt.:


    Em              C#m              C               Baug5   B
e||-7---7---7-77-7--4---4---4-44-4-|-0---0---0-00-0-----------------||
B||-8---8---8-88-8--5---5---5-55-5-|-1---1---1-11-1-----------------||
G||-9---9---9-99-9--6---6---6-66-6-|-0---0---0-00-0--4---4---4-44-4-||
D||-9---9---9-99-9--6---6---6-66-6-|-2---2---2-22-2--5---5---4-44-4-||
A||-7---7---7-77-7--4---4---4-44-4-|-3---3---3-33-3--2---2---2-22-2-||
E||--------------------------------|--------------------------------||

   When Iím tired I crawl, like the saviour in the song...
   ...but I donít mind, itís something that Iím used to.

    Em              C#m              B
e||-7---7---7-77-7--4---4---4-44-4-|--------------------------------||
B||-8---8---8-88-8--5---5---5-55-5-|--------------------------------||
G||-9---9---9-99-9--6---6---6-66-6-|44444444444444444444444444444444||
D||-9---9---9-99-9--6---6---6-66-6-|44444444444444444444444444444444||
A||-7---7---7-77-7--4---4---4-44-4-|22222222222222222222222222222222||
E||--------------------------------|--------------------------------||
                                    ................................
                                    Slowly increase volume.

   And when itís time to go, I just thought Iíd let you know...
   ...farewell this time, youíre always on m-y mind.


Outro:


    Em                               C#m                              
e||--------------------------------|--------------------------------||
B||--------------------------------|--------------------------------||
G||--------------------------------|--------------------------------||
D||-------------------------5~-----|-------------------------5~-----||
A||---5-7---5-7---5-7---5-7--------|---5-7---5-7---5-7---5-7--------||
E||-0-----0-----0-----0------------|-0-----0-----0-----0------------||

   When Iím tired I crawl, I canít stand to see you fall...
   When youíre wide and Iím awake, baby Iíve got enough damn time for a million things...
   When youíre up you roam, itís a shame to see you go...
   And just as every light you see might be the one to set you free...

    C                                Baug5                                
e||--------------------------------|--------------------------------||
B||--------------------------------|--------------------------------||
G||--------------------------------|--------------------------------||
D||-------------------------5~-----|--------------------------------||
A||---5-7---5-7---5-7---5-7--------|---5-7---5-7---5-7---5-7---5-7~-||
E||-0-----0-----0-----0------------|-0-----0-----0-----0-----0------||

   ...in years, they donít treat you like they used to.
   ...take-a what you want, it just might set you free.
   ...in years, they donít treat you like they used to.
   ...keep on rising, like the ones you used to kn-ow.  (Lets go.)


Lead Guitar fill:


    Em
e||--------------------------------||
B||--------------------------------||
G||--------------------------------||
D||-9---9---x-x-x-9---9---9---9-9-9||
A||-7---7---x-x-x-7---7---7---7-7-7||
E||-0---0---x-x-x-0---0---0---0-0-0||


Outro:


Rhythm Guitar:


    Em5                              C#m5
e||--------------------------------|--------------------------------||
B||--------------------------------|--------------------------------||
G||--------------------------------|--------------------------------||
D||-x-x-9-x-x-9-x-x-9-x-x-9-x-x-9\-|-x-x-6-x-x-6-x-x-6-x-x-6-x-x-6\-||
A||-x-x-7-x-x-7-x-x-7-x-x-7-x-x-7\-|-x-x-4-x-x-4-x-x-4-x-x-4-x-x-4\-||
E||--------------------------------|--------------------------------||


    C5                               Baug5
e||--------------------------------|--------------------------------||
B||--------------------------------|--------------------------------||
G||--------------------------------|--------------------------------||
D||-x-x-5-x-x-5-x-x-5-x-x-5-x-x-5\-|-5-5-5-5-5-5-5-5-5-5-5-5-5-5-5-5||
A||-x-x-3-x-x-3-x-x-3-x-x-3-x-x-3\-|-2-2-2-2-2-2-2-2-2-2-2-2-2-2-2-2||
E||--------------------------------|--------------------------------||


Iím no good at tabbing solos :P  Send me one at crisp_packet@hotmail.com.
Related for Take What You Want tab