Guitaretab - guitar tabs
Song name
# A B C D E F G H I J K L M N O P Q R S T U V W X Y Z

Corrosion Of Conformity - Mano De Mono tab

Corrosion of Conformity  Mano De Mono

Really easy song! Sounds cool though! Contact me at: rattlehead.coolio@hotmail.com

There are two acoustic guitars playing the same notes
e|-----1--p0-------------|------1-p0-----------------|
B|-------------/5--------|--------------/5--3--------|
G|-2---------------------|-/2------------------------|
D|-----------------------|---------------------------|
A|-----------------------|---------------------------|
E|-----------------------|---------------------------|

e|-----1-p0--------------|-----1-p0-----------------|
B|-------------/5--------|-------------/5-----------|
G|-2---------------------|-2---------------3--------|
D|-----------------------|--------------------------|
A|-----------------------|--------------------------|
E|-----------------------|--------------------------|
[ Tab from: http://www.guitaretab.com/c/corrosion-of-conformity/70129.html ]
e|-----1-p0--------------|------1-p0-----------------|
B|-------------/5--------|--------------/5--3--------|
G|-2---------------------|-2-------------------------|
D|-----------------------|---------------------------|
A|-----------------------|---------------------------|
E|-----------------------|---------------------------|

e|-----1-p0--------------|-----1-p0-----------------|
B|-------------/5--------|-------------/5-----------|
G|-2---------------------|-2---------------3--------|
D|-----------------------|--------------------------|
A|-----------------------|--------------------------|
E|-----------------------|--------------------------|

One guitar (electric)
e|-5~~~----5--5--5h6p5--\3--3~----|-0h1~~~------11--1h3p1p0----0h1p0--------1--/5~~~~~-|
B|--------------------------------|------------------------------------2~~--------------|
G|--------------------------------|-----------------------------------------------------|
D|--------------------------------|-----------------------------------------------------|
A|--------------------------------|-----------------------------------------------------|
E|--------------------------------|-----------------------------------------------------|

Enjoy!
Related for Mano De Mono tab