Song name
# A B C D E F G H I J K L M N O P Q R S T U V W X Y Z

Corrs - Breathless tab

The Corrs - Breathless

e|--2-0------2-0--------------------|
B|-----4--------4-------------------|
G|----------------------------------| 2x
D|----------------------------------|
A|----------------------------------|
E|----------------------------------|

e|--2-0---------------------------|
B|-----4-2--5-4-2-0---4-2---------|
G|------------------------3-4-----|
D|--------------------------------|
A|--------------------------------|
E|--------------------------------|
Tap to rate this tab
 
# A B C D E F G H I J K L M N O P Q R S T U V W X Y Z