Song name
# A B C D E F G H I J K L M N O P Q R S T U V W X Y Z

Corrs - Runaway tab

Help us improve GuitareTab! Take a short survey!
e|------5-8---8-5-7-5-----------------------------------------------------|
B|--------------------8-6--6-5-6-6-5-6-6-5-6------------------------------|
G|------------------------------------------------------------------------|
D|------------------------------------------------------------------------|
A|------------------------------------------------------------------------|
E|------------------------------------------------------------------------|


e|------5-8---8-5-7-5-------10-8-6-5--------------------------------------|
B|--------------------8-6-6----------6------------------------------------|
G|------------------------------------------------------------------------|
D|------------------------------------------------------------------------|
A|------------------------------------------------------------------------|
E|------------------------------------------------------------------------|

This is just the intro part, you can get the chords in tony's work and as I remember it 
CAPOED on 3rd fret,this based on his work, thanx dude.

For the 2nd verse play the last part only.

This my first piece,and this is for Leny Ann, i know this is correct try it.

ray_nong@yahoo.com
Related for Runaway tab