Song name
# A B C D E F G H I J K L M N O P Q R S T U V W X Y Z

Corrs - Little Wing tab

 e|-----------------------------12--------------------------------------------------------|
 B|--------------------------------10-----------------------------------------------------|
 G|7/9-9-9/12-12-12/14-14-14-/16-----12-14/12/16-16-16/12-11-9----9-9-9-11-12-14-14-14-/16|
 D|-----------------------------------------------------------12-9------------------------|
 A|---------------------------------------------------------------------------------------|
 E|---------------------------------------------------------------------------------------|

 e|------------------------------------------------------------------------------------|
 B|------15-12-12-8-8/-5-5-5/-3-3-3/-1-1-1---------------------------------------------|
 G|-16-16---------------------------------4-2-2--4/-2-----------2-4-4-4/7-7/-9-9/11-11/|
 D|------------------------------------------------------0-0-2-5-----------------------|
 A|---------------------------------------------------02-------------------------------|
 E|------------------------------------------------------------------------------------|

 
 e|-------------------------------------------------------------------------10-12/|
 B|--------------------------------------3--------------3-5-8-5-10-12-12-12-------|
 G|---7-7/-9-4-4/-7-7/-2-2/-4-----------4-4-2-------2-4---------------------------|
 D|--------------------------0-0-2-0-2-5-----5-2-5-2------------------------------|
 A|-------------------------------------------------------------------------------|
 E|-------------------------------------------------------------------------------|

 
  
 e|4-10-12-7-7-10-3-3-7-3-3-7-3-3-5/7-3h-5--------------------------------------|
 B|---------------------------------------5p3h-5-----3-----------3-----3--------|
 G|----------------------------------------------2-4--2/-4-22/-4---2-4--2h-4-2-2|
 D|-----------------------------------------------------------------------------|
 A|-----------------------------------------------------------------------------|
 E|-----------------------------------------------------------------------------|
 
 e|----------------------------------------------------------------------------|
 B|-----------------------10-10------------------------------------------------|
 G|---------------7-11-/12-----------------------------------------------------|
 D|---5---7---4-7--------------------------------------------------------------|
 A|-----7----------------------------------------------------------------------|
 E|----------------------------------------------------------------------------|  

| /  slide up
| \  slide down
| h  hammer-on
| p  pull-off
| ~  vibrato
| +  harmonic
| x  Mute note


Tap to rate this tab
# A B C D E F G H I J K L M N O P Q R S T U V W X Y Z