Song name
# A B C D E F G H I J K L M N O P Q R S T U V W X Y Z

Corrs - Summer Wine tab

What a great song, and very appropriate for the coming season! Sorry it's not too 
with regard to the stanzas and chorus, but I hope this helps. I've never taken a guitar 
just learning on my own. Perhaps not perfect, but sounds okay to me. Feel free to comment--LT


Capo on 3rd fret

e|--------------------------------------------------|
B|------------0----1---3---1---0------------------3-|
G|-------2------------------------------------0-----|    repeat as necessary
D|---2------------------------------------0---------|
A|-0---0---0----0----0---0---0--------2-------------|
E|----------------------------------3---3---3---3---|


e|-----------0---1---3---1---0-----------------------|
B|-------3-----------------------------------0---1---|
G|---2-----------------------------------2-----------|    repeat as necessary
D|-0---0---0---0---0---0---0---------2---------------|
A|---------------------------------0---0---0---0-----|
E|---------------------------------------------------|


e|-----------0---------3-------0---------------------|
B|-------3-------------3-------1---------------------|
G|---2-----------------0-------2---------------------|
D|-0---0---0-------------------2---------------------|
A|-----------------2-----------0---------------------|
E|---------------3---3---------0---------------------|
Tap to rate this tab
# A B C D E F G H I J K L M N O P Q R S T U V W X Y Z