Song name
# A B C D E F G H I J K L M N O P Q R S T U V W X Y Z

Corrs - Dreams tab

Help us improve GuitareTab! Take a short survey!
Dreams
by The Corrs

Chords(used only during chorus)
Am:X02210
Fmaj7:XX3210
C:X32010
D:X54030

For the following lyrics and the intro play:

Tab1:
E|--------------------------------------------------------------|
B|---------0--------------0--------------0-----------0-----0----|
G|-------5----5--------5-----5--------5-----5-----5-----5-------|
D|-----7------------7--------------8-----------5--------------5-|
A|--0------------5--------------9-------------------------------|
E|--------------------------------------------------------------|

Verse 1
Now here you go again
you say you want your freedom
well who am I to keep you down
It's only right that you should
play the way you feel it
but listen carefully to the sound
of your lonlieness

Now play:

Tab2:
E|----------------------------------|
B|-----------0-----------0-----0----|
G|--------5-----5-----5-----5-------|
D|-----8-----------5--------------5-|
A|--9-------------------------------|
E|----------------------------------|

Pre chorus 1:
Like a heart beat drives you mad
in the stillness of the memory of what you had
and what you lost
yeah, what you had, yeah
and what you lost

Chorus:
Am[hold]     Fmaj7[hold]           C[hold]     D[hold]
Thunder only happens when its raining
    Am[hold]     Fmaj7[hold]         C[hold]    D[hold]
And players only love you when their playing
     Am[hold]         Fmaj7[hold]        C[hold]   D[hold]
yeah women, they will come and they will go
C[hold]          Fmaj7[hold]          C[hold]    D[hold]
when the rain washes you clean you'll know
[no chord]
you'll know

Re-intro by violin[play tab1]

Verse 2[play tab1]
Now here I go again
I see the crystal vision
but I keep my visions to myself
well its only me
that wants to wrap around your dreams
and have you any dreams you'd like to sell
dreams of lonliness

Pre Chorus2[play tab2]
Like a heartbeat drives you mad
in the stillness of the memory of what you had
and what you lost
yeah, what you had, yeah,
and what you lost

Chorus2
As Chorus 1
Repeat to finish.
Related for Dreams tab