Corrs - I Never Love You Anyway tab

the corrs_i never really love you anyway

anterxiv@yahoo.com

from live concert in london
intro: violin

e|--17--17p15-14h15p14-----------------------------------------------------------|
B|---------------------15---12-10--10p8-7h8p7------------------------------------|
G|--------------------------------------------7----------------------------------|
D|-------------------------------------------------------------------------------|
A|--------------------------------------------------5h7p5---5--------------------|
E|----------------------------------------------5h7-------7----------------------|

solo:violin

e|--17--15p14-15p14-------14-14p12-----------------------------------------------|
B|------------------15-17----------15-17-10--(12)-13-12-10-12--12-10-8h10--------|
G|------------------------------------------------------------------------7------|
D|-------------------------------------------------------------------------------|
A|-------------------------------------------------------------------------------|
E|-------------------------------------------------------------------------------|


		violin and fan flute

e|-----------------17--15p14-15p14--------14-14p12-------------------------------|
B|---------------------------------15--17----------15-17-10----------------------|
G|-------------------------------------------------------------------------------|
D|----5-7-5----------------------------------------------------------------------|
A|--5-------7-5------------------------------------------------------------------|
E|-------------------------------------------------------------------------------|




e|------15-14-12-----------------------------------------------------------------|
B|--12-----------13/15-13-10-8-10-8-7--------------------------------------------|
G|------------------------------------7------------------------------------------|
D|-------------------------------------------------------------------------------|
A|-------------------------------------------------------------------------------|
E|-------------------------------------------------------------------------------|


legend:

	p - pull off
	/ - slide


ppg6

Tap to rate this tab
 
# A B C D E F G H I J K L M N O P Q R S T U V W X Y Z