Corrs - Runaway Acoustic tab

Song: Runaway
Version of: Ezra Band

I hope you will like this song...
It is easy if you follow the chords used and the timing of the song..

Chords used:

G - 3X0003
Am7 - X02010
C - X32010
Em - 022000
D - XX0232

Intro: G-Am7-C-- (2x)

Lead part:

e|-0--3--0--0--1--0-----------------------------------------|
B|-------------------3--1--1--0--1--0--1--3--1--0-----------|
G|----------------------------------------------------------|
D|----------------------------------------------------------|
A|----------------------------------------------------------|
E|----------------------------------------------------------|

e|-0--3--0--0--1--0--------3/5--3--1--0---------------------|
B|-------------------3--1----------------1------------------|
G|----------------------------------------------------------|
D|----------------------------------------------------------|
A|----------------------------------------------------------|
E|----------------------------------------------------------|

Verse 1:

 G            Am7       
  Say it's true
 C                G             Am7          C
  There's nothing like me and you
 G      Am7  C          G          Am7     
  Not alone, tell me you feel it too
        C
  Cause I would..

Refrain 1:

 Em         C  
  Runaway..
         Am7        D
  I would runaway.. yeah..
          Em         C
  I would runaway..
         Am7         D   C
  I would runaway with you..

Chorus:
        G Am7 C             G Am7 C
  Cause I have... fallen in love
        G     Am7    C
  With you, no never have
                 Em     Am7       C     D
  I'm never gonna stop falling in love, with you

(REPEAT Intro)

Just do the SAME chords above...

Verse 2:

  Close the door

  And lay down upon the floor

  And by candlelight, make love to me through the night

Cause I have..

Refrain 2:

  Runaway..

  I have runaway.. yeah..

  I have runaway..

  I have runaway with you..

Chorus:

  Cause I have fallen in love

  With you, no never have

  I'm never gonna stop falling in love, with you

(REPEAT Intro)
(REPEAT Refrain 2)
(REPEAT Chorus)

Kayo na po bahala kung paano nyu tatapusin ung song.. 
Paki RATE na lang po.. 
Email nyo po ako kung may questions kau...

thelastredrosepetal@hotmail.com

THANKS PO!!!
Tap to rate this tab
 
# A B C D E F G H I J K L M N O P Q R S T U V W X Y Z