Song name
# A B C D E F G H I J K L M N O P Q R S T U V W X Y Z

Corrs - Runaway tab

Runaway - The Corrs
Tabbed by - AndOrei, paramore_fans

For 10AM, Alan, Sa lahat ng kaibigan, kaaway, kakilala man o hindi. Mapa-pangit ka 
man o pogi. Playboy man o pokpok.


Gt I - Lead
Gt II - Rhythms
______________________________
Intro - Gt I
e|-5--8--6-5-6-5-------------------------|
B|---------------8-6--6--6-5-6-5-6-5-6-8-|
G|---------------------------------------|
D|---------------------------------------|
A|---------------------------------------|
E|---------------------------------------|

e|-5--8--6-5-6-5------10--8--6-5---|
B|---------------8-6-------------6-|
G|---------------------------------|
D|---------------------------------|
A|---------------------------------|
E|---------------------------------|
________________________________
Intro - Gt II
e|---------------------|
B|---------------------|
G|---------------------| Repeat 3x
D|3~-------------------|
A|3~--Let It RING!!!---|
E|1~-------------------|
________________________________

Verse - GTII
e|-----------------------------------------------------------------------------------------|
B|-----------------------------------------------------------------------------------------|
G|----------33333333-------------33333333-------------33333333-------------33333333--------|
D|3333-5555-33333333---3333-5555-33333333---3333-5555-33333333---3333-5555-33333333--------|
A|3333-5555-11111111---3333-5555-11111111---3333-5555-11111111---3333-5555-11111111--------|
E|1111 3333------------1111-3333------------1111 3333------------1111-3333-----------------|

(Continued)
e|---------------------|
B|---------------------|
G|----------33333333---|
D|3333-5555-33333333---|
A|3333-5555-11111111---|
E|1111 3333------------|
_____________________________
Refrain - Gt II

e|-----------------------------------------------------------------------------|--------------|
B|-----------------------------------------------------------------------------|--------------|
G|88888888-33333333-----------55555555----88888888-33333333-----------55555555-|33333333------|
D|88888888-33333333--55555555-55555555----88888888-33333333--55555555-55555555-|33333333------|
A|55555555-11111111--55555555-33333333----55555555-11111111--55555555-33333333-|11111111------|
E|-------------------33333333--------------------------------33333333----------|--------------|

_____________________________
Chorus - Gt II
e|-----------------------------------------------------------------------------------------|
B|-----------------------------------------------------------------------------------------|
G|-----------------33333333-------------------33333333-------------------33333333-5~-------|
D|33333333-5555555-33333333--33333333-5555555-33333333--33333333-5555555-33333333-5~-------|
A|33333333-5555555-11111111--33333333-5555555-11111111--33333333-5555555-11111111-3~-------|
E|11111111-3333333-----------11111111-3333333-----------11111111-3333333-------------------|

_____________________________
Post Chorus -  F

Violin:
e|-5-8--6-5-6-5------10--8--6-5----|
B|---------------8-6-------------6-|
G|---------------------------------|
D|---------------------------------|
A|---------------------------------|
E|---------------------------------|

VERSE
REFRAIN
CHORUS

Interlude: F--Gm--Bb--C--

Violin: x2
e|-5--8--6-5-6-5-------------------------|
B|---------------8-6--6--6-5-6-5-6-5-6-8-|
G|---------------------------------------|
D|---------------------------------------|
A|---------------------------------------|
E|---------------------------------------|

e|-5--8--6-5-6-5------10--8--6-5---|
B|---------------8-6-------------6-|
G|---------------------------------|
D|---------------------------------|
A|---------------------------------|
E|---------------------------------|


Bridge

     F  Gm Bb C
With you


(Repeat Refrain 1)


Breakdown: C-- x2


(Repeat Chorus)


Outro: F-Gm-Bb- until fade

Violin:
e|-5-8--6-5-7-5--------------------------|
B|---------------8-6--6--6-5-6-5-6-5-6-8-|
G|---------------------------------------|
D|---------------------------------------|
A|---------------------------------------|
E|---------------------------------------|

e|-5-8--6-5-7-5------10--8--6-5----|
B|---------------8-6-------------6-|
G|---------------------------------|
D|---------------------------------|
A|---------------------------------|
E|---------------------------------|



DEDZ TO - paramore_fans for teh intro, and Interlude
Tap to rate this tab
 
# A B C D E F G H I J K L M N O P Q R S T U V W X Y Z