Song name
# A B C D E F G H I J K L M N O P Q R S T U V W X Y Z

Corrupt Politicians - Lose Your Mind tab

-------------------------------------------------------------------------------
                             Lose Your Mind - Corrupt Politicians
-------------------------------------------------------------------------------


Tuning: EADGBE

INTRO:
e|---------------------|
B|---------------------|          
G|---------------------|     X64     
D|--7------------------|
A|--7------------------|
E|--5------------------|

VERSE:
e|--------------------------------------------------------------------------|
B|--------------------------------------------------------------------------|
G|--------------------------------------------------------------------------|
D|-7-7-7-7/-4-4-4-4/-11-11-11/-14/-11/-9/-11/-9-----------------------------|
A|-7-7-7-7/-4-4-4-4/-11-11-11/-14/-11/-9/-11/-9-----------------------------|
E|-5-5-5-5/-2-2-2-2/-9--9--9/--12/--9/-7/--9/-7-----------------------------|

CHORUS:
e|--------------------------------------------------------------------------|
B|--------------------------------------------------------------------------|
G|-14----11-9-6-------------------------------------------------------------|
D|-14----11-9-6-------------------------------------------------------------|
A|-12-----9-7-4-------------------------------------------------------------|
E|--------------------------------------------------------------------------|

THAT'S ALL! 
HERE'S THE ORDER OF THE SONG:
INTRO
VERSE X8
CHORUS X4
INTRO 
VERSE X8
CHORUS
OUTRO (JUST PLAY CHORUS CHORDS QUICKLY)
************************************

| /   slide up
| \   slide down
| h   hammer-on
| p   pull-off
| ~   vibrato
| +   harmonic
| x   Mute note
| b   Bend
| pb  Pre-bend
| br  Bend release
| pbr Pre-bend release
| brb Bend release bend

************************************
Tap to rate this tab
# A B C D E F G H I J K L M N O P Q R S T U V W X Y Z