Cory Asbury - My Beloved tab

Part 1
One thing have I desired of the Lord
That one thing I seek
To know You      To know You

Part 2
I was, I was made to gaze all of my days
I was made to gaze on beauty

Part 3
My beloved is beautiful
He's dazzling and excellent
My beloved is beautiful

Part 4
He stands alone

Part 5
He's coming to rule, coming to reign
He is the King, He is the King
He's coming to rule coming to reign
Jesus, Jesus


Part 1
No Guitar

Part 2
(First Time)
E|----------|     |--------------|
B|----------|     |--------------|
G|--6-6-----|     |--------------|
D|--6-6-----|     |--7--6--2--4--|
A|--4-4-----|     |--7--7--2--4--|
E|----------|     |--5--4--0--2--|
    I was...    ...Gaze on Beauty

(Second Time)
E|--------------------------|
B|--------------------------|
G|--------------------------|
D|-----7-6-4-6-4---------4~-|
A|--4------------4-7-7-7----|
E|--------------------------|


Part 3
(First Time)
E|----------------------------------------|
B|----------------------------------------|
G|------------------8--9------------4--6--|
D|------------------9--9------------4--6--|
A|------------------6--7------------2--4--|
E|----------------------------------------|
  My beloved is beautiful...  ...excellent

E|----------------------------------|
B|----------------------------------|
G|------------------------------8---|
D|------------------9--7------9-6-6-|
A|------------------9--7------7---4-|
E|------------------7--5------------|
  My beloved is beautiful

(Second Time)
E|----------------------x-x-x---------------------x-x-x-------------------|
B|----------------------x-x-x---------------------x-x-x-------------------|
G|--6-6-6-6-6--8--4--6--x-x-x-6-6-6-6-6--8--4--6--x-x-x-6-6-6-6-6--8-4--2-|
D|----------------------x-x-x---------------------x-x-x-----------------2-|
A|--4-4-4-4-4--6--2--4--x-x-x-4-4-4-4-4--6--2--4--x-x-x-4-4-4-4-4--6-2--0-|
E|----------------------x-x-x---------------------x-x-x-------------------|

E|---------|
B|---------|
G|----8----|
D|--9-6-6--|
A|--7---4--|
E|---------|


Part 4
E|-------------------|
B|-------------------|
G|--6---9---6--------|
D|--6---9---6---7-9--|
A|--4---7---4---7-9--|
E|--------------5-7--|


Part 5
E|------------------------------------------------------|
B|------------------------------------------------------|
G|--6-6----6-6----6-6----6-6----6-6----6-6--------------|  x2
D|--6-6----6-6----6-6----6-6----6-6----6-6----7-6--2-4--|
A|--4-4----4-4----4-4----4-4----4-4----4-4----7-6--2-4--|
E|--------------------------------------------5-4--0-2--|


Solo
E|--12----------12-11b12r11---------12---11b12r11--------16----------16-|
B|-----9-9-9--9-------------9-9-9-9----9---------9-9-9-9---14-14-14-----|
G|----------------------------------------------------------------------|
D|----------------------------------------------------------------------|
A|----------------------------------------------------------------------|
E|----------------------------------------------------------------------|

E|---------21--21----19-----17---12----------11b-11b-11b-11b-11b--------|
B|--14-14---------17-----17---------9-9-9--9---------------------9-9-9--|
G|----------------------------------------------------------------------|
D|----------------------------------------------------------------------|
A|----------------------------------------------------------------------|
E|----------------------------------------------------------------------|

E|--14-14-14-14-14-14-16----------17-17-17-19-21--21------------|
B|------------------------14--14---------------------17\--------|
G|--------------------------------------------------------------|
D|---------------------------------------------------------11---|
A|---------------------------------------------------------11---|
E|---------------------------------------------------------9----|


Ending
E|--------------------16-------------------------16-----|
B|-----------16-17-19-------------------16-17-19--------|
G|--------18-------------18----------18-------------18--|
D|-----18-------------------------18--------------------|
A|--16-------------------------16-----------------------|
E|------------------------------------------------------|

E|--------------------16----------16----------19---|
B|-----------16-17-19----16-17-19----16-17-19------|
G|--------18---------------------------------------|   (Repeat as
D|-----18------------------------------------------|    necessary)
A|--16---------------------------------------------|
E|-------------------------------------------------|
Tap to rate this tab
 
# A B C D E F G H I J K L M N O P Q R S T U V W X Y Z