Song name
# A B C D E F G H I J K L M N O P Q R S T U V W X Y Z

Cory Asbury - Divine Romance tab

This is my first tab ever so please be patient with me! This I just picked up by hearing
the version done by Cory Asbury from International House of Prayer. The song is
originally by Phil Wickham and is used in worship by Laura Hackett at IHOP. It's on 
Youtube so go check it out!

This is just the intro which he plays a lot through out the whole song, it's just a
basic sound of what I think he's playing, hope it helps!

Its in Capo 4


e|------------------------------------------------------------|
B|-------1-------1-------1-------1--------1-------1-------1-0-|
G|---0h2-----0h2-----0h2-----0h2------0h2-----0h2-----0h2-----|
D|------------------------------------------------------------|
A|-0-------3-----------------------0--------3-----------------|
E|-----------------3-------3------------------------3---------|

e|------------------------------------------------------------|
B|-------1-------1-------1-------1--------1-------1-----3-1-0-|
G|---0h2-----0h2-----0h2-----0h2------0h2-----0h2-----0-------|
D|------------------------------------------------------------|
A|-0-------3-----------------------0--------3-----------------|
E|-----------------3-------3------------------------3---------|

That's just the little intro part, hope it helps and if there are any mistakes on this
one please help yourself and fix it up cuz I'm no expert lol God bless!
Tap to rate this tab
 
# A B C D E F G H I J K L M N O P Q R S T U V W X Y Z