Song name
# A B C D E F G H I J K L M N O P Q R S T U V W X Y Z

Cory Asbury - Ascribe tab

-------------------------------------------------------------------------------
                             ASCRIBE–Cory Asbury
-------------------------------------------------------------------------------
Tabbed by: RADI8 WORSHIP TEAM
E-mail: bobstermyang@gmail.com

Tuning: eADGBE (Capo 1)

e|-----------------------|-------3-------------|----------------------------|
B|--------------------0~-|---------------------|------3-----------3~--------|
G|--------0—0h1--1\4-----|----4-------4---4----|---4\5—4/2-----2-----2h0----|
D|-----0-----------------|----------0---0------|---0------------------------|
A|-----------------------|---------------------|----------------------------|
E|--3--------------------|--3------------------|------------2---------------|

e|-----------------------|-------3-------------|----------------------------|
B|--------------------0~-|---------------------|------3-----------3~--------|
G|--------0—0h1--1\4-----|----4-------4---4----|---4\5—4/2-----2-----2-0----|
D|-----0-----------------|----------0---0------|---0---------------------0--|
A|-----------------------|---------------------|----------------------------|
E|--3--------------------|--3------------------|------------2---------------|

e|-----------------|------------------|-----------|-----------------|-------|
B|------------0----|--------3~--0-----|-----------|-----------------|-------|
G|------0~------0--|------0-------0---|--------0--|------2---2h0----|-------|
D|----0-----------0|----0-----------0—|----0h2----|----0---------0--|----0~-|
A|--3--------------|--2---------------|--3--------|-----------------|---0---|
E|-----------------|------------------|-----------|--2--------------|--3----|


************************************

| /   slide up
| \   slide down
| h   hammer-on
| p   pull-off
| ~   vibrato
| +   harmonic
| x   Mute note
| b   Bend
| pb  Pre-bend
| br  Bend release
| pbr Pre-bend release
| brb Bend release bend

************************************
Tap to rate this tab
# A B C D E F G H I J K L M N O P Q R S T U V W X Y Z