Song name
# A B C D E F G H I J K L M N O P Q R S T U V W X Y Z

Cosima De Vito - When The War Is Over tab

http://www.cosimadevito.com.au/

My First TAB! 

Couldn't take how there wasn't a proper tab of this song so I tried to do it myself. 

It's incomplete, because I'm stuck at that portion of the song. Please feel free to add on.

Standard Tuning!

e|------------2------------6---------------------------------------------|
B|---------2------------7---------------0--0-----0---2-------------------|
G|-------4------------8---------------2------1-----3---------------------|
D|-----4------------8---------------2------2---2---4---------------------|
A|---2------------6---------------1--------------------------------------|
E|------------------------------0----------------------------------------| x2


e|-----------------------------------------------------------------------|
B|----------4-----------4----------------0-----0-------------------------|
G|--------4-----------4---------------2--------------4-------------------|
D|------4-----------4---------------2------------4-6---------------------|
A|----2---------------------------1------------2-------------------------|
E|----------------6-------------0----------------------------------------|


e|------------------------------------------0----------------------------|
B|----------4-----------4----------------0-------------------------------|
G|--------4-----------4---------------2----------------------------------|
D|------4-----------4---------------2----------------4-6-4---------------|
A|----2---------------------------1--------------------------------------|
E|----------------6-------------0----------------------------------------|


e|-----------------------------------------------------------------------|
B|----------4-----------4-------------5--------5--5----------------------|
G|--------4-----------4-------------6--------6--------4-----4-3---4-6----|
D|------4-----------4-------------6--------6--------6-2-2-6---4-4--------|
A|----2-------------------------4--------4-------------------------------|
E|----------------6------------------------------------------------------|


e|--------------------------------2--------------------------------------|
B|----------------------4-------4---4------------------------------------|
G|--------6-4---------4-------4-------4----------------------------------|
D|----6-6-----------4-------4--------------------------------------------|
A|------------------------2-------------2--------------------------------|
E|----4-----------6------------------------------------------------------|


e|------------2------------6---------------------------------------------|
B|---------2------------7---------------0--0-----0---2-------------------|
G|-------4------------8---------------2------1-----3---------------------|
D|-----4------------8---------------2------2---2---4---------------------|
A|---2------------6---------------1--------------------------------------|
E|------------------------------0----------------------------------------| x2


e|-----------------------------------------------------------------------|
B|----------4-----------4----------------0-----0-------------------------|
G|--------4-----------4---------------2--------------4-------------------|
D|------4-----------4---------------2------------4-6---------------------|
A|----2---------------------------1------------2-------------------------|
E|----------------6-------------0----------------------------------------|


e|------------------------------------------0----------------------------|
B|----------4-----------4----------------0-------------------------------|
G|--------4-----------4---------------2----------------------------------|
D|------4-----------4---------------2----------------4-6-4---------------|
A|----2---------------------------1--------------------------------------|
E|----------------6-------------0----------------------------------------|


e|-----------------------------------------------------------------------|
B|--------4-4-----------7-----------9------------------------------------|
G|------------------8-------------9--------------------------------------|
D|------6-----6s1-----8---8s1---9----------------------------------------|
A|----------------6-----------7------------------------------------------|
E|----4------------------------------------------------------------------|
Tap to rate this tab
# A B C D E F G H I J K L M N O P Q R S T U V W X Y Z