Song name
# A B C D E F G H I J K L M N O P Q R S T U V W X Y Z

Cosmic Gate - Exploration Of Space tab

I didn't see any tabs for this song anywhere, so the good guy i am, i tabbed it out how i play it.
Enjoy

"...Exploration of space!"
(This starts out really quiet and fades in)
e|----------------------------|
B|---13[x5]--13--15--17-------|
G|-----------------------16---|
D|----------------------------|
A|----------------------------|
E|----------------------------|

(The song starts to build up)
e|-------------------------------------------------------|
B|---13[x5]--13[x5]--13[x5]--13[x5]---13[strum rapidly]--|
G|-------------------------------------------------------|
D|-------------------------------------------------------|
A|-------------------------------------------------------|
E|-------------------------------------------------------|


(Now were groovin)
e|------------------------------------------------------|
B|---13[x5]--13--15--17-------------------------13[x3]--|
G|-----------------------16---16---16----16-------------|
D|------------------------------------------------------|
A|------------------------------------------------------|
E|------------------------------------------------------|

e|------------------------------------------------------------|
B|---13[x5]--13--15--17-----------------------18--17----------|
G|-----------------------19---19---19----19-------------------|
D|----------------------------------------------------22--21--|
A|------------------------------------------------------------|
E|------------------------------------------------------------|

That's all there is to it. After that it just repeats it's self through out the song.

Questions?
Comments?
I suck?

LAWLIET107@gmail.com


http://www.cosmic-gate.de
Tap to rate this tab
 
# A B C D E F G H I J K L M N O P Q R S T U V W X Y Z