Song name
# A B C D E F G H I J K L M N O P Q R S T U V W X Y Z

Cosmic Psychos - Lost Cause tab

verse

E-------------|
B-------------|
G-------------|
D-444-7-------|
A-444-7-------|
E-222-5-------|
(F#5, A5)

chorus

E-------------|
B-------------|
G-------------|
D-222-777-444-|
A-222-777-444-|
E-----555-222-|

(E5, A5, F#5)

outro

E-------------|
B-------------|
G-------------|
D-4-4-4-4-4-2-|
A-4-4-4-4-4-2-|
E-2-2-2-2-2---|

(F#5, E5)

Listen to the song for the strumming pattern. I'm unable to figure out the solo.

Lyrics:
Look at that face,
Look at those eyes,
Look at those legs,
Look at those thighs

She's a lost cause
She's a lost, lost cause

She's walking,
I'm talking,
She's rushing,
I'm blushing

She's a lost cause
She's a lost, lost cause
She's only 19,
I'm a has been
Tap to rate this tab
# A B C D E F G H I J K L M N O P Q R S T U V W X Y Z