Song name
# A B C D E F G H I J K L M N O P Q R S T U V W X Y Z

Cosmo Klein - All I Need tab

Help us improve GuitareTab! Take a short survey!
Well i only spotted the intro tab but its nearly the same in the verses. Idont know 
about the Chorus. Please tell me all your corrections.

Ich hab nur das intro herausgefunden, aber in den Strophen ist es fast das gleiche, da 
man nur im zweiten teil ein paar noten ndern. Ich bitte um Verbesserungen vorallem im 
weil ich da rein nix hab :P

Corrections/Berichtigungen an -->  markus.christmann1@arcor.de
tuning: standart EADGHe
Verse/intro:
e|-----2--------0----------0---------0-----|
H|-----3----------0--------1-----------3---|
G|--------0---------2----------0---------2-|
D|----4--------0---------2---------0-------|
A|--5--------4---------3---------0---------|
E|-----------------------------------------|

e|-----------------------------------------|
H|------3--------3-2/3------3------3---3---|
G|--------2------2-2/2----2----------2-----|
D|----0----0------------0--------0---------|
A|-----------------------------0-----------|
E|--0--------0--------0--------------------|
Related for All I Need tab