Song name
# A B C D E F G H I J K L M N O P Q R S T U V W X Y Z

Cosmo Klein - All I Ever Need tab

Cosmo Klein
All i ever need

The Intro is sound like this:

----------2---------------0---------------2-------|
----------3----3-------0-----0------------3--3----|
------2--------2-----------------------2-----2----|
---0----------------------------------------------|
--------------------4---------------2-------------|
--------------------------------------------------|


--------0----------------------------------------------------------|
-----0-----0---------3---3-3-3-----------3---------------------3---|
---------------------2---2-0-2-----------0-------------------0--0--|
--------------------------------------------------0--------0-------|
--0-------------------------------------2-------------0------------|
-----------------0-------------------3-----------------------------|


Then you can play these Chords in this Order:

D      x00232
F#m    244222
Em     022000
Em7    022030
G      320033
A7sus4 x02233
D      x00232

Have Fun! Viel Spaß!
Tap to rate this tab
 
# A B C D E F G H I J K L M N O P Q R S T U V W X Y Z