Song name
# A B C D E F G H I J K L M N O P Q R S T U V W X Y Z

Costello Elvis - After The Fall tab

Help us improve GuitareTab! Take a short survey!
Band: Metro Station
Song: After the Fall

Tabbed by: Zak Vesely

This is another tab for the Band Metro Station.  Metro Station is Mason Musso, Trace 
Blake Healy and Anthony Improgo.

Intro
e------------------3-----3--------------------------|
B------4-----4---4-----4---4-3---4-3---4-3---4-3----|
G----5-----5---5-----5---------3-----3-----3-----3--|
D--6-----6------------------------------------------|
A---------------------------------------------------|
E---------------------------------------------------|

Verse is the same as the Intro

Chorus
e-------------------------------------------------------|
B-------------------------------------------------------|
G--12~~~~-8~~~~-5~~~~-10~~~~-12~~~~-8~~~~-5~~~~-3~~~~---|
D--12~~~~-8~~~~-5~~~~-10~~~~-12~~~~-8~~~~-5~~~~-3~~~~---|
A--10~~~~-6~~~~-3~~~~--8~~~~-10~~~~-6~~~~-3~~~~-1~~~~---|
E-------------------------------------------------------|

Bridge
e----------3----| repeat twice
B----4---4---4--|
G--5---5--------|
D---------------|
A---------------|
E---------------|

Repeat Verse

Repeat Chorus

Repeat Bridge Twice

Repeat Chorus Twice

Thats it :)
Related for After The Fall tab