Song name
# A B C D E F G H I J K L M N O P Q R S T U V W X Y Z

Costello Elvis - Charm School tab

this part isn't supposed to be just guitar, but it sounds fine.

-----------------------------------|
-1--5--8--11--11--11--11-----------|
-----------------------------------| slide all and let all ring
-----------------------------------|
-3--7--10-13-----------------------|
-----------------------------------|


------------------------------------------------------|
---------------------------------------11-10----13----|
--10-14-12-10-12-10-10-14-12-10-12--12-------12----10-|
------------------------------------------------------|
------------------------------------------------------|
------------------------------------------------------|
Tap to rate this tab
 
# A B C D E F G H I J K L M N O P Q R S T U V W X Y Z