Guitaretab - guitar tabs
Song name
# A B C D E F G H I J K L M N O P Q R S T U V W X Y Z

Costello Elvis - Little Triggers tab

“Little Triggers”
The Falcon
Unicornography
Tabbed by Cory M.

Intro:
e--------------------------------------|
B--------------------------------------|
G---5--5--5--5-------------------------|
D---6--6--6--6-------------------------|
A---4-----4----------------------------|
E------5-----5-------------------------|

Verse:
e--------------------------------------|
B--------------------------------------|
G---5—-5--5--5--5--5--4--5-------------|
D---6--6--6--6--6--6--4--6-------------|
A---4-----4-----4-----2--4-------------|
E------5-----5-----5-------------------|

Pre Chorus:
e--------------------------------------|
B--------------------------------------|
G---5-----4-----2--4--2--4-------------|
D---6-x1--4-x1--2--4--2--4-------------|
A---4-----2-----0--2--0--2-------------|
E--------------------------------------|
[ Tab from: http://www.guitaretab.com/c/costello-elvis/4046.html ]
Chorus:
e--------------------------------------|
B--------------------------------------|
G---6--2-----4-------------------------|
D---6--2--2--4-------------------------|
A---4--0--2--2-------------------------|
E---------0----------------------------|

Solo (simplified):
e---7-7-7-7-4-7-7-7-7-4-2-0------------|
B---------------------------2----------|
G--------------------------------------|
D--------------------------------------|
A--------------------------------------|
E--------------------------------------|

Solo (continued) 
e---7-7-7-4-2-0---4-2-0----------------|
B---------------2-------0-2------------|
G--------------------------------------|
D--------------------------------------|
A--------------------------------------|
E--------------------------------------|





Solo (continued again)
e----------------------7-9-------------|
B----2-5-7-5-0-2-2-5-7-----------------|
G--------------------------------------|
D--------------------------------------|
A--------------------------------------|
E--------------------------------------|
Related for Little Triggers tab
Advertisement will be closed in 10 seconds