Song name
# A B C D E F G H I J K L M N O P Q R S T U V W X Y Z

Costello Elvis - My Funny Valentine tab

-------------------------------------------------------------------------------
			     My Funny Valentine – Frank Sinatra
-------------------------------------------------------------------------------
Tabbed by: cellosmith
Email: thekevinsmith@comcast.net

this is my first tab, enjoy!  i am sure it is correct.

Tuning: Standard

e|--------------------------------------5-3-2-0------------------------------|
B|--0-2-3-2—3-2----0-2-3-2-3-2----0-2-3--------------------------------------|
G|---------------------------------------------------------------------------|
D|---------------------------------------------------------------------------|
A|---------------------------------------------------------------------------|
E|---------------------------------------------------------------------------|

e|----0-2-0-2-0------0-2-0-2-0-----0-2-9-7-5-4-3-----------------------------|
B|--3--------------3--------------3------------------------------------------|
G|---------------------------------------------------------------------------|
D|---------------------------------------------------------------------------|
A|---------------------------------------------------------------------------|
E|---------------------------------------------------------------------------|

e|--2-0-5-----------------7----------------9---------------7-----------------|
B|--------3--3-2-3----3-2----------------------------------------------------|
G|--------------------------7-7-6-7----7-6---7-7-6-7--9-11-------------------|
D|---------------------------------------------------------------------------|
A|---------------------------------------------------------------------------|
E|---------------------------------------------------------------------------|

e|---------------------0-2-0-2-0----7-9-10-9-10-9---10--------0-2-2---2p0----|
B|--0-0-2-3-2-3-2----3------------------------------------3---------3-----3--|
G|---------------------------------------------------------------------------|
D|---------------------------------------------------------------------------|
A|---------------------------------------------------------------------------|
E|---------------------------------------------------------------------------|

e|--2-0-5-----------------7----------------9---------------7-----------------|
B|--------3--3-2-3----3-2----------------------------------------------------|
G|--------------------------7-7-6-7----7-6---7-7-6-7--9-11-------------------|
D|---------------------------------------------------------------------------|
A|---------------------------------------------------------------------------|
E|---------------------------------------------------------------------------|

e|--9-9-7--------------0-2-2---0----7-9-10-9-10-9---10-----------------------|
B|--------3-2-3-2----3-------3-----------------------------------------------|
G|---------------------------------------------------------------------------|
D|---------------------------------------------------------------------------|
A|---------------------------------------------------------------------------|
E|---------------------------------------------------------------------------|

e|--10-7---2-5-2-------------------------------------------------------------|
B|-------0----------3--------------------------------------------------------|
G|---------------2-----------------------------------------------------------|
D|---------------------------------------------------------------------------|
A|---------------------------------------------------------------------------|
E|---------------------------------------------------------------------------|

e|---------------------------------------------------------------------------|
B|---------------------------------------------------------------------------|
G|---------------------------------------------------------------------------|
D|---------------------------------------------------------------------------|
A|---------------------------------------------------------------------------|
E|---------------------------------------------------------------------------|


| /  slide up
| \  slide down
| h  hammer-on
| p  pull-off
| ~  vibrato
| +  harmonic
| x  Mute note
===============================================================================

Lyrics:

My funny valentine...
Sweet, comic valentine...
You make me smile with my heart
Your looks are laughable,
Unphotographable
Yet you’re my favorite work of art

Is your figure less than Greek?
Is your mouth a little weak?
When you open it to speak,
Are you smart?
But don't change a hair for me,
Not if you care for me.
Stay, little valentine, stay!
Each day is valentine's day.

Is your figure less than Greek?
Is your mouth a little weak?
When you open it to speak,
Are you smart?
But don't change a hair for me,
Not if you care for me.
Stay, little valentine, stay!
Each day is Valentine's Day.

Tap to rate this tab
 
# A B C D E F G H I J K L M N O P Q R S T U V W X Y Z