Song name
# A B C D E F G H I J K L M N O P Q R S T U V W X Y Z

Costello Elvis - Riot Act tab

Help us improve GuitareTab! Take a short survey!
Riot Act - Exodus                Tab - Swamplord
The Atrocity Exhibition
Track 2

I'm pretty sure this song's played one step down in D tuning.
I've tabbed up until the lyrics begin. Working on the rest.

           PM       PM       PM       PM  
     S S S S  S S S S  S S S S  S S S S   
D||--------------------------------------|
A||--------------------------------------|
F||--------------------------------------|
C||--------------------------------------|
G||-----------0-5-7-------------0-5-7----|
D||--0-3-5-0--------0--0-3-6-0--------0--|


        PM       PM       PM       PM          PM       PM       PM       PM  
  S S S S  S S S S  S S S S  S S S S     S S S S  S S S S  S S S S  S S S S   
--------------------------------------|--------------------------------------|
--------------------------------------|--------------------------------------|
--------------------------------------|--------------------------------------|
--------------------------------------|--------------------------------------|
-----------0-5-7-------------0-5-7----|-----------0-5-7-------------0-5-7----|
--0-3-5-0--------0--0-3-6-0--------0--|--0-3-5-0--------0--0-3-6-0--------0--|


        PM       PM       PM       PM                      
  S S S S  S S S S  S S S S  S S S S     W                 
--------------------------------------|-------------------|
--------------------------------------|-------------------|
--------------------------------------|-------------------|
--------------------------------------|--2----------------|
-----------0-5-7-------------0-5-7----|--2----------------|
--0-3-5-0--------0--0-3-6-0--------0--|--0----------------|


          PM       PM       PM       PM          PM       PM       PM       PM  
    S S S S  S S S S  S S S S  S S S S     S S S S  S S S S  S S S S  S S S S   
|---------------------------------------|--------------------------------------|
|---------------------------------------|--------------------------------------|
|*--------------------------------------|--------------------------------------|
|*--------------------------------------|--------------------------------------|
|------------0-5-7-------------0-5-7----|-----------0-5-7-------------0-5-7----|
|---0-3-5-0--------0--0-3-6-0--------0--|--0-3-5-0--------0--0-3-6-0--------0--|


        PM       PM       PM       PM  
  S S S S  S S S S  S S S S  S S S S   
--------------------------------------|
--------------------------------------|
--------------------------------------|
--------------------------------------|
-----------0-5-7-------------0-5-7----|
--0-3-5-0--------0--0-3-6-0--------0--|


  Drum fill in here second time around                                      
                                           PM       PM       PM       PM    
  S                                    S S S  S S S S  S S S S  S S S S     
--------------------------------------------------------------------------||
--------------------------------------------------------------------------||
-------------------------------------------------------------------------*||
-------------------------------------------------------------------------*||
----------------------------------------------0-5-7-------------0-5-7-----||
--0------------------------------------3-5-0--------0--0-3-6-0--------0---||


         PM       PM       PM       PM          PM       PM       PM       PM  
   S S S S  S S S S  S S S S  S S S S     S S S S  S S S S  S S S S  S S S S   
---------------------------------------|--------------------------------------|
---------------------------------------|--------------------------------------|
*--------------------------------------|--------------------------------------|
*--------------------------------------|--------------------------------------|
------------0-5-7-------------0-5-7----|-----------0-5-7-------------0-5-7----|
---0-3-5-0--------0--0-3-6-0--------0--|--0-3-5-0--------0--0-3-6-0--------0--|


        PM       PM       PM       PM          PM       PM       PM       PM    
  S S S S  S S S S  S S S S  S S S S     S S S S  S S S S  S S S S  S S S S     
--------------------------------------|---------------------------------------||
--------------------------------------|---------------------------------------||
--------------------------------------|--------------------------------------*||
--------------------------------------|--------------------------------------*||
-----------0-5-7-------------0-5-7----|-----------0-5-7-------------0-5-7-----||
--0-3-5-0--------0--0-3-6-0--------0--|--0-3-5-0--------0--0-3-6-0--------0---||


                                            PM       PM       PM       PM  
                          |--3--|                                          
  S S S S S S S S S S S S E  E  E     S S S S  S S S S  S S S S  S S S S   
-----------------------------------|--------------------------------------|
-----------------------------------|--------------------------------------|
-----------------------------------|--------------------------------------|
-----------------------------------|--------------------------------------|
----5-6-7---3-6-5---2-3-5----7--0--|--5-6-7----5-6-7----5-6-7----5-6-7----|
--0-5-6-7-0-3-6-5-0-2-3-5-0--7--0--|--5-6-7-0--5-6-7-0--5-6-7-0--5-6-7-0--|


        PM       PM       PM       PM          PM       PM       PM       PM  
  S S S S  S S S S  S S S S  S S S S     S S S S  S S S S  S S S S  S S S S   
--------------------------------------|--------------------------------------|
--------------------------------------|--------------------------------------|
--------------------------------------|--------------------------------------|
--------------------------------------|--------------------------------------|
--3-5-6----2-5-3----2-5-3----5-6-7----|--5-6-7----5-6-7----5-6-7----5-6-7----|
--3-5-6-0--2-5-3-0--2-5-3-0--5-6-7-0--|--5-6-7-0--5-6-7-0--5-6-7-0--5-6-7-0--|


        PM       PM       PM       PM   
  S S S S  S S S S  S S S S  S S S S    
--------------------------------------||
--------------------------------------||
--------------------------------------||
--------------------------------------||
--3-5-6----2-5-3----2-5-3----5-6-7----||
--3-5-6-0--2-5-3-0--2-5-3-0--5-6-7-0--||




Duration Legend
---------------
W - whole
Q - quarter
E - 8th
S - 16th
|-n-|  - n-tuplets


Tablature Legend
----------------
h - hammer on
p - pull off
b - bend
Related for Riot Act tab