Song name
# A B C D E F G H I J K L M N O P Q R S T U V W X Y Z

Count The Stars - Understanding tab

Understanding
Count The Stars
Tabbed===    CadmanX

Standard= E A D G B e

Intro
----------------------------------------------------------------------
----------------------------------------------------------------------
----------------------------------------------------------------------
----------------------------------------------------------------------
--333-3-3~----------333-3-3~------------------------------------------
-----------111-1-1~----------111-1-1~---------------------------------

Verse 1 

-------------------|---------------------------------------------------
-------------------|---------------------------------------------------
--5~~~-----5~~~----|---55-5--55-5--55-5--55-5--------------------------
--5~~~-----5~~~----|---55-5--55-5--55-5--55-5--33-3--33-3--33-3--33-3--
--3~~~-----3~~~----|---33-3--33-3--33-3--33-3--33-3--33-3--33-3--33-3--
-------------------|---------------------------11-1--11-1--11-1--11-1-- x2
                       **    **    **    **    **    **    **    **    


Chorus
----------------------------------------------------------------------
----------------------------------------------------------------------
--555555--------------------------------------------------------------
--555555---555555---222222---33333333---------------------------------
--333333---555555---222222---33333333---------------------------------
-----------333333---000000---11111111---------------------------------


Interlude
----------------------------------------------------------------------
----------------------------------------------------------------------
----------------------------------------------------------------------
-22222222--333333333--555555-5-555555-5-------------------------------
-22222222--333333333--555555-5-555555-5-------------------------------
-00000000--111111111--333333-3-333333-3------------------------------- x4
                      ******   ******
Then play

----------------------------------------------------------------------
----------------------------------------------------------------------
--555555--------------------------------------------------------------
--555555---555555---2-2-2222---3333-3~--------------------------------
--333333---555555---2-2-2222---3333-3~--------------------------------
-----------333333---0-0-0000---1111-1~--------------------------------
  ******   ******       ****   ****

Then Play Chorus till end...
Tap to rate this tab
 
# A B C D E F G H I J K L M N O P Q R S T U V W X Y Z