Song name
# A B C D E F G H I J K L M N O P Q R S T U V W X Y Z

Count The Stars - Taking It All Back tab

Drop D Tuning
~-let ring
.-palm mute
<-pickslide


Guitar 1(intro pt. 1)
E  ---------------|
B  ---------------|
G  4-6-4---4-3----|
D  ------4-----4~-|
A  ---------------|
D  ---------------|

   (intro pt. 2)
E  ----------------------------------------------------------------|
B  ----7-5-4-----7-5-4h5p4---------7-5-4h5p4-----5-4h5p4-----5-4---|
G  4-6-------4-6-----------6-4-4-6-----------6-4---------6-4-----4-|
D  ----------------------------------------------------------------|
A  ----------------------------------------------------------------|
D  ----------------------------------------------------------------|

   1st verse                         1st time only
E  ----------------------------<<------------------------|
B  ----------------------------<<------------------------|
G  4444-4~-------4444-4~-------<<4    -------4    -------|
D  4444-4~2222-2~4444-4~4444-4~<<4-x16-2    -4-x16-4    -|
A  2222-2~2222-2~2222-2~4444-4~<<2    -2-x16-2    -4-x10-|
D  -------2222-2~-------4444-4~<<------2    -------4    -|
   ....   ....   ....   ....     .     .     .

   Chorus
E  7-7-6-6-7-7-6-6-7-7-6-6-7-7-6---------7-7-6-6-7-7-11-11--7-7-6-6-7-7-6-6-6-|
B  -7-7-7-7-7-7-7-7-7-7-7-7-7-7-----------7-7-7-7-7-7--7--7--7-7-7-7-7-7------|
G  ------------------------------6h8p6----------------------------------------|
D  ------------------------------------7--------------------------------------|
A  ---------------------------------------------------------------------------|
D  ---------------------------------------------------------------------------|

   Post Chorus
E  ---------------------------------------------------------------------------|
B  ---------------------------------------------------------------------------|
G  4444-6666-4444-8888-4444-6666-4444-8888-4444-6666-4444-8888-66666666-66-66-|
D  xxxx-xxxx-xxxx-xxxx-xxxx-xxxx-xxxx-xxxx-xxxx-xxxx-xxxx-xxxx-xxxxxxxx-xx-xx-|
A  2222-4444-2222-6666-2222-4444-2222-6666-2222-4444-2222-6666-44444444-44-44-|
D  ---------------------------------------------------------------------------|
                                                               ........
   2nd verse
E  ----------------------------<<
B  ----------------------------<<
G  4444-4~-------4444-4~-------<<
D  4444-4~2222-2~4444-4~4444-4~<<-now play the "post chorus"
A  2222-2~2222-2~2222-2~4444-4~<<
D  -------2222-2~-------4444-4~<<
   ....   ....   ....   ....

Repeat Chorus

   After Repeat Chorus
E  ---------------------------------------------------------------|
B  ---------------------------------------------------------------|
G  4444-6666-4444-8888-4444-6666-4444-8888-4444-6666-4444-8888----|6x
D  xxxx-xxxx-xxxx-xxxx-xxxx-xxxx-xxxx-xxxx-xxxx-xxxx-xxxx-xxxx-xx-|
A  2222-4444-2222-6666-2222-4444-2222-6666-2222-4444-2222-6666----|4x
D  ---------------------------------------------------------------|

   Bridge
E  -------------------------------------------------------------|
B  -------------------------------------------------------------|
G  -------------------------------------------------------------|
D  1~-6666-6~6666-6~2222-2~2222-2~4444-4~4444-4~4444-4~44444444-|
A  1~-6666-6~6666-6~2222-2~2222-2~4444-4~4444-4~4444-4~44444444-|
D  1~-6666-6~6666-6~2222-2~2222-2~4444-4~4444-4~4444-4~44444444-|
      ....   ....   ....   ....   ....   ....   ....   ........
E  --------------------|
B  --------------------|
G  --------------------|
D  6    -2    -4   -4~-|
A  6-x16-2-x16-4x16-4~-|
D  6    -2    -4   -4~-|

Somewhat Solo(guitar 2 only)

Repeat Chorus
e----------------------------------------------------------------------------------
   Ending
E  ------------------------------------------------------------------------------------|
B  ------------------------------------------------------------------------------------|
G  4444-6666-4444-8888-4444-6666-4444-8888-4444-6666-4444-8888-666666666-6~6-6~44-4-4~-|
D  xxxx-xxxx-xxxx-xxxx-xxxx-xxxx-xxxx-xxxx-xxxx-xxxx-xxxx-xxxx-xxxxxxxxx-x-x-x-xx-x-x~-|
A  2222-4444-2222-6666-2222-4444-2222-6666-2222-4444-2222-6666-444444444-4~4-4~22-2-2~-|
D  ------------------------------------------------------------------------------------|


--------------------------------------------------------------------------------------


Guitar 2(intro pt. 1)
E  ---------------------------------------|
B  ---------------------------------------|
G  44-44----------------------------------|
D  44-44-44-44-66-66-11-11-22-22-22-22-4~-|
A  22-22-44-44-66-66-11-11-22-22-22-22-4~-|
D  ------44-44-66-66-11-11-22-22-22-22-4~-|
   (intro pt. 2)
E  ------------------------------------------------|
B  ------------------------------------------------|
G  44-44-------------------------------------------|
D  44-44-44-44-66-66-11-11-22-22-22-22-44-44-4-4-4-|
A  22-22-44-44-66-66-11-11-22-22-22-22-44-44-4-4-4-|
D  ------44-44-66-66-11-11-22-22-22-22-44-44-4-4-4-|

Verse (same as guitar 1 1st time only)

   Chorus
E  ----------------------------------------------------|
B  ----------------------------------------------------|
G  44-44-----------------------------------------------|
D  44-44-44-44-66-66-11-11-22-22-22-22-44-44-4---------|
A  22-22-44-44-66-66-11-11-22-22-22-22-44-44-4-5h6p5-2-|
D  ------44-44-66-66-11-11-22-22-22-22-44-44-4---------|

E  ------------------------------------------------|
B  ------------------------------------------------|
G  44-44-------------------------------------------|
D  44-44-44-44-66-66-11-11-22-22-22-22-44-44-4-4-4-|
A  22-22-44-44-66-66-11-11-22-22-22-22-44-44-4-4-4-|
D  ------44-44-66-66-11-11-22-22-22-22-44-44-4-4-4-|

   Post Chorus(1st time)
E  ------------------------------------|
B  ------------------------------------|
G  4-   -------4    -------------------|
D  4-x16-2    -4-x16-44444444-4-4~4-4~-|
A  2-   -2-x16-2    -44444444-4-4~4-4~-|
D  ------2    -------44444444-4-4~4-4~-|
                     ........ .   .

   Verse 2nd time(kind of echo)
E  -----------------------------------------------<<
B  -----------------------------------------------<<
G  -----44444444------------------44444444--------<<
D  -----44444444-----22222222-----44444444--------<<
A  -----22222222-----22222222-----22222222--------<<
D  ------------------22222222---------------------<<
        ........     ........     ........

   Post Chorus(2nd time)
E  ----------------------------|
B  ----------------------------|
G  4-   -------4    -----------|
D  4-x16-2    -4-x16-4444444---|4x
A  2-   -2-x16-2    -4444444---|4x
D  ------2    -------4444444---|4x
                     ........

Bridge(same as guitar 1)

Repeat Intro(pt. 1)

Repeat Chorus

Repeat Post Chorus

  End on
E  ------|
B  ------|
G  44-4-4
D  44-4-4
A  22-2-2
D  ------

Thank you, this is my first tab!!
Tap to rate this tab
 
# A B C D E F G H I J K L M N O P Q R S T U V W X Y Z