Song name
# A B C D E F G H I J K L M N O P Q R S T U V W X Y Z

Count Your Blessings - Tore Up tab

-------------------------------------|
-------------------------------------|
-10bp9----12-12-13bp12---------------|
-------10--------------12-12-12-12---|
-------------------------------------|
-------------------------------------|

                                       x4

-------------------------------------|
-------------------------------------|
-10bp9----12-12-13bp12---------------|
-------10--------------12-12-12-12---|
-------------------------------------|
-------------------------------------|


Guitar 1 plays alone twice, then guitar 2 comes in and plays it with guitar 1 two more times.


bp = bend pull off


http://www.myspace.com/cyblessings
Tap to rate this tab
# A B C D E F G H I J K L M N O P Q R S T U V W X Y Z