Guitaretab - guitar tabs
Song name
# A B C D E F G H I J K L M N O P Q R S T U V W X Y Z

Count Zero - Hot Head tab

B|----------------5---------------|                                  
G|----------3---4---5---4---------|
G|--------7--2--------2-----5-----|
D|------4-----------------4-------| 
A|-----2---------------------2----|
D|---1--------------------------4-|

Josh C is a beast

B|-------------------------------------------------| 
G|-----3-----3--------3------3---------------------|
G|----0----0--------0------0-----------------------|   hold & fade
D|--2----0--------4------5-------------------------| 
A|-------------------------------------------------|
D|-------------------------------------------------|

And he really is the meanest


B|-------------------------------------------------|           
G|-------------------------------------------------|
D|-12--11--12--11-12-11----------------------------| 
A|-----------------------12--12--12--1214---------|
D|-----------------------------------------15\-----|
                                              \
but one day his mom got mad

B|------------------------------------------------------------------| 
G|------------------------------------------------------------------|
G|---------------2-------------------------------2------------------|
D|---2-----------2---2---------------2-----------2---2--------------| 
A|---2-----------0---2---------------2-----------0---2--------------|
D|---0-2-3-4-5-6-0-0-0-2-3-4-5-6-7-8-0-2-3-4-5-6-0-0-0-2-3-4-5-6-7-8|

And he went to go see his dad
[ Tab from: http://www.guitaretab.com/c/count-zero/87620.html ]
B|------------------------------------------------------| 
G|------------------------------------------------------|
G|---------------2-------------------------------2------|
D|---2-----------2---2---------------2-----------2---2--| hold last note and fade
A|---2-----------0---2---------------2-----------0---2--|   (open for small solos)
D|---0-2-3-4-5-6-0-0-0-2-3-4-5-6-7-8-0-2-3-4-5-6-0-0-0--|

She kooled her head down the next day

B|--------------------------------| 
G|-----3-----3--------3------3----|
G|----0----0--------0------0------|
D|--4----4--------4------4--------| 
A|--------------------------------|
D|--------------------------------|
But it was too late all josh could say




B|-------------------------------------3-----------| 
G|-----3-----3--------3------3---------0-----------|
G|----0----0--------0------0-----------0-----------|   hold & fade
D|--2----2--------2------2-------------0-----------| 
A|-------------------------------------2-----------|
D|-------------------------------------3-----------|
MY FRIEND THINKS UR A HOT HEAD!!!!!   (repeat x74)

B|----------------------------------------------------------| 
G|----------------------------------------------------------|
G|---------------2------------------------------------------| mute
D|---2-----------2---2---------------2----------------------| 
A|---2-----------0---2---------------2----------------------|
D|---0-0-0-0-0-0-0-0-0-0-0-0-0-0-0-0-0----------------------|

But she really was
B|----------------------------------------------------------| 
G|----------------------------------------------------------|
G|----------------------------------------------------------| MUTE
D|----------------------------------------------------------| 
A|-----------4----5---4---5-4-3-4-5-1-22--------------------|
D|----0--2-2---2----2---2-----------------------------------|
Related for Hot Head tab