Counterparts - Sturdy Wings tab

              I Might try and tab full song out depending if
                  i have the time too or not i know that
                    intro tabs arnt really liked in
                     ultimate-guitar but theres
                       nothing for this band
                         or song so here
                            is intro!



Band : Counterparts
Song : Sturdy Wings
Album : Prophets
Tuned : Drop C

================
Things To Know!
================
~ - Let Ring
\ - slide down
nh - natural harmonic


Intro
|-------------------------8~--------------------------|
|------------6---6~----6~----6~----6~-----------------|
|------------9------9~----------9~--------------------|
|--10-10-10----------------------------0~--0~---------|
|---8--8--8----------------------------0~--0~--12\----|
|---7--8--8----------------------------0~--0~--12\----|

|---888888-----------------------|
|---666666-----------------------|
|---999999-----------------------|
|--------------------------------|
|-----------5nh-5nh-5nh-5nh------|
|--------------------------------|

                      I just listened to this song 20 min ago!
                         I Mean This Prolly Isnt Perfect
                          But It's damn close i Assure!

                       http://www.myspace.com/counterparts
Tap to rate this tab
 
# A B C D E F G H I J K L M N O P Q R S T U V W X Y Z