Song name
# A B C D E F G H I J K L M N O P Q R S T U V W X Y Z

Counterparts - Goodbye Megaton tab

Drop C. 
Upto the clean parts only, but I will finish it by the end of the week, promise :) 
I think the dischords at 0:00-0:02 and 0:13-0:15 etc. are played by Guitar 1 live.
I don't know what effects are used, if you'd like you can tell me and I'll put it in this info.

Guitar 1 - Lead guitar.
Guitar 2 - Rhythm guitar.
Guitar 3 - Extra/Harmony.

Guitar 1
|-------------------------------|
|-------------------------------|
|-151515151515-141414141414-----|
|--x-x-x-x-x-x--x-x-x-x-x-x-----|
|-131313131313-121212121212-----|
|---------------------------13\-|
|  b b b b b b  b b b b b b (slight bend and back)
|Guitar 2
|-----------------------------|
|-----------------------------|
|-----------------------------|
|-121212121212--0-0-0-0-0-----|
|-121212121212--0-0-0-0-0-----|
|-121212121212--0-0-0-0-0-13\-|
|
|Guitar 3
|---------------------------|
|-111111111111--------------|
|-141414141414--------------|
|---------------------------|
|--------------131313131313-|
|---------------------------|
                b b b b b b (slight bend and back)

|Guitar 1
|------------------------------------------------|
|------------------------------------------------|
|------------------------------------------------|
|------------------------------0~----------------|
|------------------------------0~----*Pick-----*-|
|-0-0-0-0-0000--0-0-0-0-0000---0~----*----Slide*-|
| . . . . ....          ....
|Guitar 2
|--------------------------------------------------|
|--------------------------------------------------|
|--------------------------------------------------|
|------------------------------0~------*Pick-----*-|
|------------------------------0~------*----Slide*-|
|-0-0-0-0-0000--0-0-0-0-0000---0~------------------|
  . . . . ....          ....

|Guitar 1
|------------------------------------------------------------------------------------------------|
|------------------------------------------------------------------------------------------------|
|-151515151515151515151515151515-141414141414-12\10101010-12\101010-15151515-10-141414-----------|
|--x-x-x-x-x-x-x-x-x-x-x-x-x-x-x--x-x-x-x-x-x--x--x-x-x-x--x--x-x-x--x-x-x-x--x--x-x-x------15---|
|-131313131313131313131313131313-121212121212-10\-8-8-8-8-10\-8-8-8-13131313--8-121212-12-13--13-|
|------------------------------------------------------------------------------------------------|
|  b b b b b b b b b (slight bend and return)
|Guitar 2
|-----------------------------------------------------------------------------|
|-----------------------------------------------------------------------------|
|-----------------------------------------------------------------------------|
|-121212121212121212--0-0-0-0-0-0-0-0-0--3-3-3-3-3-3-3-3-3--3-3-3-3-3-3-3-3-3-|
|-121212121212121212--0-0-0-0-0-0-0-0-0--1-1-1-1-1-1-1-1-1--3-3-3-3-3-3-3-3-3-|
|-121212121212121212--0-0-0-0-0-0-0-0-0--1-1-1-1-1-1-1-1-1--3-3-3-3-3-3-3-3-3-|
|
|Guitar 3
|---------------------------------------------|
|-111111111111111111--------------------------|
|-141414141414141414151515151515-141414141414-|
|--------------------x-x-x-x-x-x--x-x-x-x-x-x-|
|-------------------121212121212-121212121212-|
|---------------------------------------------|


|Guitar 1
|----------------------------------------------------------------------------------------|
|-------------------------------------------------------------------------------11111111-|
|-1515151515151515---------------------12\10101010-12\101010-15151515-10-141414-14141414-|
|--x-x-x-x-x-x-x-x----------------------x--x-x-x----x--x-x-x--x-x-x-x--x--x-x-x----------|
|-1313131313131313----0-0-0-0-0-0------10\-8-8-8-8-10\-8-8-8-13131313--8-121212----------|
|-----------------12/-0-0-0-0-0-0-0-0-0--------------------------------------------------|
|  b b b b b b b b    . . . . . .   . (Slight bend and return)
|Guitar 2
|----------------------------------------------------------------------------|
|----------------------------------------------------------------------------|
|----------------------------------------------------------------------------|
|-1212121212121212----------------------3-3-3-3-3-3-3-3-3--3-3-3-3-3-3-3-3-3-|
|-1212121212121212----0-0-0-0-0-0-------1-1-1-1-1-1-1-1-1--3-3-3-3-3-3-3-3-3-|
|-121212121212121212/-0-0-0-0-0-0-0-0-0-1-1-1-1-1-1-1-1-1--3-3-3-3-3-3-3-3-3-|
|                     . . . . . .   .
|Guitar 3
|--------------------|
|-111111111111111111-|
|-141414141414141414-|
|--------------------|
|--------------------|
|--------------------|


|Guitar 1
|--------------------------------------------------------------------------------|
|--------------------------------------------------------------------------------|
|--------------------------------------------------------------------------------|
|--------------------------------------------------------------------------------|
|-13p12-13p12---13p12-13p12--------13p12-13p12----1111111111111111-8888-12121212-|
|------0-----0-0-----0-----12121212-----0-----0-0-1111111111111111-8888-12121212-|
|
|Guitar 2
|------------------------------------------------------------------------------------|
|------------------------------------------------------------------------------------|
|-------------------------------------------------1313131313131313-10101010----------|
|--------------------------------------------------x-x-x-x-x-x-x-x--x-x-x-x----------|
|-13p12-13p12---13p12-13p12--------13p12-13p12----1111111111111111--8-8-8-8-12121212-|
|------0-----0-0-----0-----12121212-----0-----0-0---------------------------12121212-|


|Guitar 1
|-------------------------------------------------------------------------------|
|-------------------------------------------------------------------------------|
|-------------------------------------------------------------------------------|
|-------------------------------------------------------------------------------|
|-13p12-13p12---13p12-13p12-------13p12-13p12----1111111111111111-8888-12121212-|
|------0-----0-0-----0-----12-0-12-----0-----0-0-1111111111111111-8888-12121212-|
|
|Guitar 2
|-----------------------------------------------------------------------------------|
|-----------------------------------------------------------------------------------|
|------------------------------------------------1313131313131313-10101010----------|
|-------------------------------------------------x-x-x-x-x-x-x-x--x-x-x-x----------|
|-13p12-13p12---13p12-13p12-------13p12-13p12----1111111111111111--8-8-8-8-12121212-|
|------0-----0-0-----0-----12-0-12-----0-----0-0---------------------------12121212-|


|Guitar 1
|------------------15b-|
|------------------19b-|
|----------------------|
|----------------------|
|-*Slide----*----------|
|-*-----Pick*----------|
| (Slide pick up toward the bridge)
|Guitar 2
|------------------15b-|
|------------------19b-|
|----------------------|
|----------------------|
|----------------------|
|-------------0-0-0----|
              . . .

|Guitar 1
|---------------------------------------------------------------------------|
|----------------------------------------------------------1111111111111111-|
|----------------------------------------------------------1414141414141414-|
|----------------------------------------------------------1515151515151515-|
|---------------------------------------------------------------------------|
|-12p0-0-12p0-0-0-12p0-0-12p0-0000-12p0-0-12p0-0-0--------------------------|
|      .      . .      .      ....      .        .
|Guitar 2
|-------------------------------------------------------------------|
|-------------------------------------------------------------------|
|-------------------------------------------------------------------|
|-------------------------------------------------------------------|
|--------------------------------------------------1111111111111111-|
|-12p0-0-12p0-0-0-12p0-0-12p0-0000-12p0-0-12p0-0-0-1111111111111111-|
       .      . .      .      ....      .        .

|Guitar 1
|-------------------------------|
|-------------------------------|
|---3---2---3---2---3---2-------|
|-------------------------------|
|-------------------------1---3-|
|-11--33--11--33--11--33--1---3-|
| ..  ..  ..  ..  ..  .. 
|Guitar 2
|-------------------------------|
|-------------------------------|
|---33------33------33----------|
|-------77------77------77------|
|-1---3---1---3---1---3---1---3-|
|-1---3---1---3---1---3---1---3-|


|Guitar 1
|-----------------------------13--------------|
|-1111--11--1010--10--88--8-----11-10--11--11-|
|-----10--10----10--10--10-10--------14--14---| x2
|---------------------------------------------|
|---------------------------------------------|
|---------------------------------------------|
|
|Guitar 2
|----------------------------------------|
|----------------------------------------|
|----------------------------------------| x2
|-55-5-555--33-3-333--11-1-111--11-1-111-|
|-55-5-555--33-3-333--11-1-111--11-1-111-|
|-55-5-555--33-3-333--11-1-111--11-1-111-|


|Guitar 1
|----------------------------10v-10v10v10v-13v13v13v13v-|
|-11v-11v11v11v-13v-13v13v13v---------------------------|
|-------------------------------------------------------|
|-------------------------------------------------------|
|-------------------------------------------------------|
|-------------------------------------------------------|
|
|Guitar 2
|----------------------------------------------|
|----------------------------------------------|
|----------------------------------------------|
|-55-5-555--1010-10-101010--33-3-333--33-3-333-|
|-55-5-555---8-8--8--8-8-8--11-1-111--11-1-111-|
|-55-5-555---8-8--8--8-8-8--11-1-111--11-1-111-|


|Guitar 1
|----------------------------------13---------13-|
|-1111--11--10b=r--10--88------------11-10--11---|
|-----10--10-----10--10--10-101010--------14-----|
|------------------------------------------------|
|------------------------------------------------|
|------------------------------------------------|
|
|Guitar 2
|----------------------------------------|
|----------------------------------------|
|----------------------------------------|
|-55-5-555--33-3-333--11-1-111--11-1-111-|
|-55-5-555--33-3-333--11-1-111--11-1-111-|
|-55-5-555--33-3-333--11-1-111--11-1-111-|


|Guitar 1
|-13----13----13----13----13------13----13----13----13----13------13~-------------|
|---11----11----11----11----11------11----11----11----11----11----11~-------------|
|-----14----14----14----14----14------14----14----14----14----14--14~-------------|
|---------------------------------------------------------------------------------|
|---------------------------------------------------------------------*Pick-----*-|
|---------------------------------------------------------------------*----Slide*-|
|
|Guitar 2
|---------------------------------------------------------------------------------|
|---------------------------------------------------------------------------------|
|---------------------------------------------------------------------------------|
|-1-1-1-1-1-1-1-1-1-1-1-1-1-1-----1-1-1-1-1-1-1-1-1-1-1-1-1-1------3~~~~~~~~~~~~~-|
|-1-1-1-1-1-1-1-1-1-1-1-1-1-1-----1-1-1-1-1-1-1-1-1-1-1-1-1-1------1~~~~~~~~~~~~~-|
|-1-1-1-1-1-1-1-1-1-1-1-1-1-1-----1-1-1-1-1-1-1-1-1-1-1-1-1-1------1~~~~~~~~~~~~~-|


Key:

b = Bend
r = Release Bend
. = Palm Mute
~ = Let Ring
v = Vibrato
P = Pull Off
H = Hammer On
Tap to rate this tab
 
# A B C D E F G H I J K L M N O P Q R S T U V W X Y Z