Song name
# A B C D E F G H I J K L M N O P Q R S T U V W X Y Z

Counterparts - The Disconnect tab

Isn't the whole song but i'm sure whoever wants these tabs will appreciate a 
start.Thanks for checking it out. first tab, sorry if any mistakes (n)

-------------------------------------------------------------------------------
                             The Disconnect- Counterparts
------------------------------------------------------------------------------- *=Palm mute
Tabbed by: LeeMaliaisGod
E-mail: blakefimrite@hotmail.com

Tuning:Drop C
   * * * * * * * *  * * *  * * *  * * *  *
x|---------------------------------------------------------------------------|
x|---------------------------------------------------------------------------|
x|-0-0-0-0-0-0-0-0---0-0-0--0-0-0--------------------------------------------|
x|-2-2-2-2-2-2-2-2---4-4-4--5-5-5--0-0-0--0-----------riff x2----------------|
x|---------------------------------5-5-5--3-x15------------------------------|
x|---------------------------------------------------------------------------|
then...
x|-0--0--0-----------------------------0-------0-----------------------------|
x|-0--0--0-----------------------------0-------0-----------------------------|
x|-2--2--2---------0-x8----------------0-------0-----------------------------|
x|-4--4--4---2-2---------x-x-x-x---2-2---2-2-2---2-4-4-4-5-5-5---------------|
x|-3--3--3---2-2---------x-x-x-x---2-2---2-2-2---2-2-2-2-2-2-2---------------|
x|-0--0--0---2-2---------x-x-x-x---2-2---2-2-2---2-2-2-2-2-2-2---------------|

x|-------0-------0-------0-------0---------------------------------------------|
x|-------0-------0-------0-------0---------------------------------------------|
x|-------2-------2-------2-------2---------------------------------------------|
x|-------4-------4-------4-------4---------------------------------------------|
x|-5-5-5-3-3-3-3-3-3-3-3-3-3-3-3-3---------------------------------------------|
x|-2-2-2-----------------------------------------------------------------------|

there we go...more tabs will come if people like this or actually care, again thanks for 
checking it out.


*  Palm mute
Tap to rate this tab
# A B C D E F G H I J K L M N O P Q R S T U V W X Y Z