Song name
# A B C D E F G H I J K L M N O P Q R S T U V W X Y Z

Counterparts - Compass tab

------------------------------------------------------------------------------
                             Compass - Counterparts
------------------------------------------------------------------------------

Tabbed by:magnamanny
E-mail:mannyd11@gmail.com

Tuning:Drop C

Counterparts recently made two videos of them playing Compass and Witness and that was 
cool since those two songs are my favorite on the album.
I figured someone should make a tab for this song. I can only tab the intro right now as 
I'm currently trying to learn the rest of the song.
Enjoy!
(This is also my first tab, sorry for any mistakes.)

Legend:

x = Dead Note

Guitar 1

d|----------------------------------------------------------------------------------|
A|----------------------------------------------------------------------------------|
F|---------14----------------14-------14---------------14---------------------3~----|
C|-------------------------------------------------------------------------------7~-|
G|-17xx17------13----17xx17------13-------13----17xx17------13----12-12-8-8---------|
C|-13xx13-0-------12-13xx13-0-------12-------12-13xx13-0-------12-8--8--5-5---------|
Tap to rate this tab
# A B C D E F G H I J K L M N O P Q R S T U V W X Y Z