Song name
# A B C D E F G H I J K L M N O P Q R S T U V W X Y Z

Counterparts - Witness tab

------------------------------------------------------------------------------
                             Witness - Counterparts
------------------------------------------------------------------------------

Tabbed by: magnamanny
E-mail:mannyd11@gmail.com

Tuning: D Standard

Fortunately someone else posted an attempt at tabbing this song.
Although not a lot of people know that this song as well as Lost and Decay are the only 
songs they've written in D Standard.
Here's my attempt at tabbing Alex's parts.

(/) Slide Up
(\) Slide Down
(h) Hammer On
(p) Pull Off
(b) Bend
(r) Release
(v) Vibrato
 * = Palm Mute

[Intro] x2

d|-------------------------------------------------------------------------------------------------|
A|-------------------------------------------------------------------------------------------------|
F|-------------------------------------------------------------------------------------------------|
C|-------------------------------------------------4--4--4--4--4--4--4--4--4--4--4--4--4--4--4--4--|
G|-2--2--2--2--2--2--2--2--2--2--2--2--2--2--2--2--2--2--2--2--2--2--2--2--2--2--2--2--2--2--2--2--|
D|-0--0--0--0--0--0--0--0--2--2--2--2--2--2--2--2--3--3--3--3--3--3--3--3--3--3--3--3--3--3--3--3--|



d|----------------------|
A|----------------------|
F|----------------------|
C|----------------4~----|
G|----2~----2~----2~----|
D|----0~----2~----3~----|



d|------------------------------------------------------------------|
A|------------------------------------------------------------------|
F|------------------------------------------------------------------|
C|------------------------------------------------------------------|
G|-3-3-3-3-3-3-3-3-3-3-3-3-3-3-3-3-5-5-5-5-5-5-5-5-5-5-5-5-5-5-5-5--|
D|-7-7-7-7-7-7-7-7-7-7-7-7-7-7-7-7-2-2-2-2-2-2-2-2-2-2-2-2-2-2-2-2--|



d|----------------------------------------------------------------------------|
A|----------------------------------------------------------------------------|
F|----------------------------------------------------------------------------|
C|--9------------------------------------9------------------------------------|
G|--7--2---3--3--3--3--3--3--3--3--3--3--7--2---3--3--3--3--3--3--3--3--3--3--|
D|-----0---7--7--7--7--7--7--7--7--7--7-----0---7--7--7--7--7--7--7--7--7--7--|
           *  *  *  *  *  *  *  *  *  *         *  *  *  *  *  *  *  *  *  *


d|--------------------------------------------------|
A|--------------------------------------------------|
F|--------------------------------------------------|
C|--9-9--------9------------------------------------|
G|--7-7--2-2---7--2---3--3--3--3--3--3--3--3--3--3--|
D|-------0-0------0---7--7--7--7--7--7--7--7--7--7--|
                      *  *  *  *  *  *  *  *  *  *


d|--------------------------------------------------|
A|--------------------------------------------------|
F|--------------------------------------------------|
C|--9-----------------------------------------------|
G|--7--2---3--3---7--7--7--7--9--9--9--9------------|
D|-----0---7--7---5--5--5--5--7--7--7--7------------|
           *  *


d|--------------------------------------------------------------------------|
A|--------------------------------------------------------------------------|
F|--------------------------------------------------------------------------|
C|--9-----------------------------------9-----------------------------------|
G|--7--2--3--3--3--3--3--3--3--3--3--3--7--2--3--3--7--7--7--7--9--9--9--9--|
D|-----0--7--7--7--7--7--7--7--7--7--7-----0--7--7--5--5--5--5--7--7--7--7--|
          *  *  *  *  *  *  *  *  *  *        *  *


d|----------------------------------------------------------------------------|
A|----------------------------------------------------------------------------|
F|----------------------------------------------------------------------------|
C|--9------------------------------------9------------------------------------|
G|--7--2---3--3--3--3--3--3--3--3--3--3--7--2---3--3--3--3--3--3--3--3--3--3--|
D|-----0---7--7--7--7--7--7--7--7--7--7-----0---7--7--7--7--7--7--7--7--7--7--|
           *  *  *  *  *  *  *  *  *  *         *  *  *  *  *  *  *  *  *  *


d|-----------0~~------|
A|-----------0~~------|
F|-----------x--------|
C|-----------2~~------|
G|---7---9---2~~------|
D|---5---7---0~~------|



d|--------------------------------|
A|--------------------------------|
F|--------4-----------4-----4-----|
C|--------------------------0-----|
G|--0h2/3---3----0h2/3--3---3-----|
D|--------------------------------|



d|-------------------------------|
A|-------------------------------|
F|-------------------------------|
C|-------------------------------|
G|--3-3---3-3--------------------|
D|--0-0---0-0-----00000000-------|
      *     *

[Repeat Intro]


d|------------------------|
A|------------------------|
F|------------------------|
C|-----2--------1---------|
G|--3--3--3--2--2---------|
D|--3-----3--2------------|
    *     *  *

d|------------------------|
A|------------------------|
F|------------------------|
C|-----2~----------4~-----|
G|-----2~----2~----2~-----|
D|-----0~----2~----3~-----|


d|-----------------------------------------------------------------------------------------------|
A|-----------------------------------------------------------------------------------------------|
F|-----------------------------------------------------------------------------------------------|
C|-----------------------------------------------9--9--9--9--9--9--9--9--9--9--9--9--9--9--9--9--|
G|--3--3--3--3--3--3--3--3--3--3--3--3--3--3--3--6--6--6--6--6--6--6--6--6--6--6--6--6--6--6--6--|
D|--7--7--7--7--7--7--7--7--7--7--7--7--7--7--7--7--7--7--7--7--7--7--7--7--7--7--7--7--7--7--7--|


d|------------------------------------------|
A|------------------------------------------|
F|---------4br---4br---4br------------------|
C|--9---------------------------------------|
G|--7--2-------3-----3-----3---3~---3--3~---|
D|-----0-----------------------0~---0--0~---|
                                    *

d|------------------------------------------|
A|------------------------------------------|
F|--------4br---4br---4br-------------------|
C|--9--------------------------7--9---------|
G|--7--2------3-----3-----3----7--9---------|
D|-----0-----------------------5--7---------|


d|------------------------------------------|
A|------------------------------------------|
F|--------4br---4br---4br-------------------|
C|--9---------------------------------------|
G|--7--2------3-----3-----3----3-3~--3-3~---|
D|-----0-----------------------0-0~--0-0~---|
                               *     *

d|------------------------------------------|
A|------------------------------------------|
F|--------4br---4br---4br-------------------|
C|--9--------------------------7--9---------|
G|--7--2------3-----3-----3----7--7---------|
D|-----0-----------------------5--7---------|


d|--------------------------------------------------------------------------------------------|
A|--------------------------------------------------------------------------------------------|
F|--------------------------------------------------------------------------------------------|
C|--9-----------------------------------------------------------------------------------------|
G|--7--2---3--3--3--3--3--3--3--3--3--3--3--3--3--3--3--3--3--3--3--3--3--3--3--3---3~-3--3~--|
D|-----0---0--0--0--0--0--0--0--0--0--0--0--0--0--0--0--0--0--0--0--0--0--0--0--0---0~-0--0~--|
           *  *  *  *  *  *  *  *  *  *  *  *  *  *  *  *  *  *  *  *  *  *  *  *      *

d|--------------------------------------------------------------------------------------------|
A|--------------------------------------------------------------------------------------------|
F|--------------------------------------------------------------------------------------------|
C|--9-----------------------------------------------------------------------------------------|
G|--7--2---3--3--3--3--3--3--3--3--3--3--3--3--3--3--3--3--3--3--3--3--3--3--3--3---7--9------|
D|-----0---0--0--0--0--0--0--0--0--0--0--0--0--0--0--0--0--0--0--0--0--0--0--0--0---5--7------|
           *  *  *  *  *  *  *  *  *  *  *  *  *  *  *  *  *  *  *  *  *  *  *  *

d|-------------------------------------------------------------------------------|
A|-------------------------------------------------------------------------------|
F|-----------------------------------4-----4-------------------------------------|
C|--9--------------------------------0-----0--9-----------0~---------------------|
G|--7--2--3--3--3--3~--3--3--3--3~---3--3--3--7--2--3-3-3-3~--3-3-3~--3-3-3-3~---|
D|-----0--0--0--0--0~--0--0--0--0~------0--------0--0-0-0-0~--0-0-0~--0-0-0-0~---|
                   *            *                         *       *         *

d|-------------------0~~---|
A|-------------------0~~---|
F|-------------------X-----|
C|---7--9----5--5----2~~---|
G|---7--9----5--5----2~~---|
D|---5--7----3--2----0~~---|


d|--0~----------------------0~-------0~---------------------|
A|-----3~-----------------3~--3~-----3~---------------------|
F|--------4~---------4~---------4~~--4~---------------------|
C|-----------5~~~4~~~---4~-----------5~---------------------|
G|------------------------------------------3-3--3-3--3-3---|
D|------------------------------------------0-0--0-0--0-0---|


d|----------------------------------------------|
A|-----3-----3~------3-----3-----3~-------------|
F|-----4-----4~------4-----4-----4~---4~--------|
C|-----0-----0~------0-----0-----0~------0~-----|
G|--3--3--3--3~---3--3--3--3--3--3~-------------|
D|--0-----0-------0-----0-----0-------------0~--|
    *     *       *     *     *

d|-------------------------------------------------|
A|-------------------------------------------------|
F|-------------------------------------------------|
C|-------------------------------------------------|
G|--3-3--3-3-----3-3--3-3--3-3----3-3----3-3---3~--|
D|--0-0--0-0-----0-0--0-0--0-0----0-0----0-0---0~--|
                                               *

d|-----0-----0-------0-----0-----0---------------------|
A|-----3-----3-------3-----3-----3---------------------|
F|-----4-----4-------4-----4-----4--4br--4br~----------|
C|-----5-----5-------5-----5-----5------------0~-------|
G|--3--3--3--3----3--3--3--3--3--3---------------3~----|
D|--0-----0-------0-----0-----0------------------------|
    *     *       *     *     *

d|-----0-----0-----0---------------|
A|-----3-----3-----3---------------|
F|-----4-----4-----4--4br----------|
C|-----5-----5-----5-------0~~~----|
G|--3--3--3--3--3--3-------3~~~----|
D|--0-----0-----0------------------|
    *     *     *
Tap to rate this tab
# A B C D E F G H I J K L M N O P Q R S T U V W X Y Z