Song name
# A B C D E F G H I J K L M N O P Q R S T U V W X Y Z

Counterparts - Thank God tab

--------------------------------------------------------------
                                      Thank God - Counterparts
--------------------------------------------------------------

Tabbed by:magnamanny
E-mail:mannyd11@gmail.com

Tuning: Drop C

Unfortuantely I'm back again with only another intro tab. 
It really is time consuming to listen to a song repeatedly and to write down what you hear.
My goal is to tab out the entire "The Current Will Carry Us" but it will take some time.
So here's the most i could figure out of this song.

@ 0:00 - 0:10
Guitar 1
E|------------------------------------------------------------------------------|
B|------------------------------------------------------------------------------|
G|------------------------------------------------------------------------------|
D|--7-7-7-7-8-8-7-7-7-7--------------------7-7-7-7-8-8-7-7-7-7------------------|
A|--5-5-5-5-5-5-5-5-5-5--8-8-8-8--8-8-8-8--5-5-5-5-5-5-5-5-5-5--8-8-8-8---8--8--|
E|-----------------------7-7-7-7--5-5-5-5-----------------------7-7-7-7---5--5--|


@ 0:06 - 0:10
Guitar 2
E|----------------------|
B|----------------------|
G|----------------------|
D|--0~~---ps\-----------|
A|--0~~---ps\---8----8--|
E|--0~~---ps\---5----5--|
Tap to rate this tab
 
# A B C D E F G H I J K L M N O P Q R S T U V W X Y Z