Song name
# A B C D E F G H I J K L M N O P Q R S T U V W X Y Z

Counterparts - Compass tab

Counterparts: Compass
Drop C

Tabbed by watching the play through and by ear, the tapping sections are probably off so 
if you know what they really are feel free to comment them.

|-----------------|-----------------|
|-----------------|-----------------|
|----------14-----|-------------3---|
|-----------------|---------------7-|
|-17xxx17----13---|-12-12--8-8------|
|-13xxx13-0----12-|-8--8---5-5------|

|-------|---------------------|
|-------|---------------------|
|-------|-5--5--5--5--5-------|
|-7-7-5-|--3--3--3--3--3--7-5-|
|-0-3-2-|---7--7--7--7--7-3-2-|
|-0-3-2-|-----------------3-2-|

|----------------|--------------|
|----------------|--------------|
|-14-----14-14---|--------------|
|----------------|--------------|
|---13---13-13---|-12-12--13-13-|
|-----12-------0-|-8--8---10-10-|

|----------------------------------8----8----8----8--|
|---------------------------------6-6--6-6--6-6--6-8-|
|---5------5-------5------5------9----9----9----9----|
|----7------7-------5------5-------------------------|
|--8---8--8---8---8---8--8---8-----------------------|
|-8---8--8---8---8---8--8---8------------------------|

|-----------------|
|-----------------|
|-----------------|
|-0-5-7-8-8-7-5-0-|
|-0-5-7-8-8-7-5-0-|
|-0-5-7-8-8-7-5-0-|

|(0)---------------------------------------------|
|(0)---------------------------------------------|
|(0)---------5----5--------5-5-5--7-9-10-10~10p9-|
|-7-3333333----33--3-33-3--3-3-3--x-x-x----------|
|-5-7777777-7--77----77--7-7-7-7--5-7-8----------|
|-5----------------------------------------------|

|-------------------13------13----13-13-13-|
|-13-6-13-8~-10~------11------10--10-10-10-|
|-----------------10----10-9------9--9--9--|
|------------------------------------------|
|------------------------------------------|
|------------------------------------------|

|---------------------------------------------|
|---------------------------------------------|
|---------------------------------------------|
|-0-5-7-8-8/------------------0-5-7-8-8-7-5-7-|
|-0-5-7-8-8/-11111-8-8--11111-0-5-7-8-8-7-5-5-|
|-0-5-7-8-8/-00000-8-8--00000-0-5-7-8-8-7-5---|

|-------------------------------|
|-------------------------------|
|-------------------------------|
|-------7-7-------0-1-3-4-3-1-0-|
|-11111-5-5-11111-0-1-3-4-3-1-0-|
|-00000-----00000-0-1-3-4-3-1-0-|

|----------------------------------------------------|
|----------------------------------------------------|
|---------------------2------------------------------|
|-7--77--77--7-------------7--77--77--77--77--77-----|
|-5--55--55--5-5h6p5-1--0--5--55--55--55--66--66-5-1-|
|--00--00--00--5h6p5-1--0---00--00--00--00--00---5-1-|

|---------------------------------------------------------|
|---------------------------------------------------------|
|---------------------------------------------------------|
|-7--77--77--77--77--77--77--77---------------------------|
|-5--55--55--55--66--66--66--66----1-11-11-11-11-11-11-11-|
|--00--00--00--00--00--00--00------5-55-55-55-55-55-55-55-|
                                     **    **    **    **
|------------------------------------|
|------------------------------------|
|------------------------------------|
|------------------------------------|
|-5/1-11-11-11-11-11-1-0-1-3-4-3-1-0-|
|-5/1-11-11-11-11-11-1-0-1-3-4-3-1-0-|
      **    **    **
|-----------------|----------------------------------------------------------|
|-----------------|----------------------------------------------------------|
|----------14-----|-------------------14-----14-----1414-14------------------|
|-----------------|---------------------------------x-x----------------------|
|-17xxx17----13---|-12xx12--17xxx17-----13-----13---1313-13--12xx12-13x13x13-|
|-13xxx13-0----12-|-8-xx8---13xxx13-0-----12-----12-----x----8-xx8--10x10x10-|

|---------------------------------------------------------|
|---------------------------------------------------------|Do twice and after
|---------------------------------------------------------|the second time that
|---------------------------------------------------------|noise is either the
|-1-00-1-0--1-00-1-0-000-1-0-1--0-1-0-h12p0h5h6h13p0h7h15-|E or A string and hes
|-1-00-1-0--1-00-1-0-000-1-0-1--0-1-0---------------------|switching the pickups
    **   *    **   * ***   *    *   *
|----------------------------------------------------------------|
|----------------------------------------------------------------|
|----------------------------------------------------------------|
|--------------------------------------------h12p0h5h6h13p0h7h15-|
|------------------------------------1-1-1-1---------------------|
|-0000--0000-0000-0000-0-0-0-0-0-0-0-1-1-1-1---------------------|
  ****  **** **** **** * * * * * * *   * * *
|-------------------------------------------------------|
|-------------------------------------------------------|
|-------------------------------------------------------|
|-------------------------------------------------------|
|-00-00-00-0-0000-00-00-00-0--0-0-0--12-12-12-12-8-8-13-|
|-00-00-00-0-0000-00-00-00-0--0-0-0--8--8--8--8--5-5-10-|
  ** ** ** * **** ** ** ** *  * * *     *  *  *    *
|----------------------------------8----8----8----8--|
|---------------------------------6-6--6-6--6-6--6-8-|
|---5------5-------5------5------9----9----9----9----|
|----7------7-------5------5-------------------------|
|--8---8--8---8---8---8--8---8-----------------------|
|-8---8--8---8---8---8--8---8------------------------|

|---------|
|---------|
|---------|
|-0-5-7-8-|
|-0-5-7-8-|
|-0-5-7-8-|

|-------------------13------13---|---13----13---13----13-13-13-13-13-13-|
|-13-6-13-8~-10~------11------10-|-----11----10-------11-11-11-10-10-10-|
|-----------------10----10-9-----|-10----10----9------10-10-10-9--9--9--|
|--------------------------------|--------------------------------------|
|--------------------------------|--------------------------------------|
|--------------------------------|--------------------------------------|

|-----------------|---8---8---8-|-------------------|
|-----------------|--6---6---6--|---1---1---1-------|
|-----------------|-9---9---9---|--2---2---2---0h2~-|
|-3--3-3-2-2-3333-|-------------|-------------------|
|-5--8/7-3-1-5555-|-------------|-1---1---1---1-----|
|-----------------|-------------|-------------------|

|--------------------------|
|-10---6---13---5---6~--5~-|
|--------------------------|
|--------------------------|
|--------------------------|
|--------------------------|
Tap to rate this tab
# A B C D E F G H I J K L M N O P Q R S T U V W X Y Z