Guitaretab - guitar tabs
Song name
# A B C D E F G H I J K L M N O P Q R S T U V W X Y Z

Countess - Hymn To The Gods Of Yore tab

HYMN TO THE GODS OF YORE

As performed by COUNTESS on the album "The Revenge Of The Horned One - Part I".
Words and music by Orlok.

Normal tuning.

x = palm mute

Fig. 1 (guitar 1)
E|-----------------|
B|-----------------|
G|-5-------5-------|
D|-5-------5-------|
A|-3-------3-------|
E|-----------------|

Fig. 1 (guitar 2)
E|----------------------------------------|
B|----13----13----13----13----13-11-------|
G|-------12----12----12----12-------10-12-|
D|-10-------------------------------------|
A|----------------------------------------|
E|----------------------------------------|

Fig. 2
E|-----------------------------|
B|-----------------------------|
G|-5--7-8--7-5-8-7-3-5-----5---|
D|-5--7-8--7-5-8-7-3-5---5---5-|
A|-3--5-6--5-3-6-5-1-33-------|
E|-----------------------------|

Fig. 3
E|------------------|
B|------------------|
G|-5555555555555555-|
D|-5555555555555555-|
A|-3333333333333333-|
E|------------------|
   xxxxxxxxxxxxxxxx

Fig. 4 and 5 (guitar 1)
E|---------------------------------|
B|---------------------------------|
G|-5---5---7---7---8---8---10---10-|
D|-5---5---7---7---8---8---10---10-|
A|-3---3---5---5---6---6----8----8-|
E|---------------------------------|

Fig. 4 (guitar 2)
E|----------------------------------------------|
B|----------------------------------------------|
G|----------------------------------10----------|
D|-10-12-13-12-10-12-13-12-10-12-13----13-12-10-|
A|----------------------------------------------|
E|----------------------------------------------|

E|----------------------------------------------|
B|----------------------------------------------|
G|-------10----------10----------10-12-10-------|
D|-12-13----13-12-13----13-12-13----------13-12-|
A|----------------------------------------------|
E|----------------------------------------------|
[ Tab from: http://www.guitaretab.com/c/countess/57191.html ]
E|----------------------------------------------|
B|----------------------------------10----------|
G|----10-12-10----10-12-10----10-12----12-10----|
D|-13----------13----------13----------------13-|
A|----------------------------------------------|
E|----------------------------------------------|

E|----------------------------------------------|
B|-------10----------10----------10-11-10-------|
G|-10-12----12-10-12----12-10-12----------12-10-|
D|----------------------------------------------|
A|----------------------------------------------|
E|----------------------------------------------|

Fig. 5 (guitar 2)
E|----------------------------------13----------|
B|-13-15-16-15-13-15-16-15-13-15-16----16-15-13-|
G|----------------------------------------------|
D|----------------------------------------------|
A|----------------------------------------------|
E|----------------------------------------------|

E|-------13----------13----------13-15-13-------|
B|-15-16----16-15-16----16-15-16----------16-15-|
G|----------------------------------------------|
D|----------------------------------------------|
A|----------------------------------------------|
E|----------------------------------------------|

E|----13-15-13----13-15-13----13-15-17-15-13----|
B|-16----------16----------16----------------16-|
G|----------------------------------------------|
D|----------------------------------------------|
A|----------------------------------------------|
E|----------------------------------------------|

E|-13-15-17-15-13-15-17-15-13-15-17-18-17-15-13-|
B|----------------------------------------------|
G|----------------------------------------------|
D|----------------------------------------------|
A|----------------------------------------------|
E|----------------------------------------------|

Fig. 6
E|---------------------------------|
B|---------------------------------|
G|-5-------------------------------|
D|-5-------------------------------|
A|-3-------------------------------|
E|---------------------------------|


SONG STRUCTURE

Fig 1 x 4
Fig 2 x 4
Fig 1 x 4
Fig 3 x 4		w/verse 1
Fig 1 x 4
Fig 2 x 4
Fig 1 x 4
Fig 3 x 4		w/verse 2
Fig 4 x 1
Fig 5 x 1
Fig 6 x 1		w/verses 3 and 4
Fig 1 x 4
Fig 2 x 4
Fig 1 x 4
Fig 3 x 4		w/verse 5
Fig 1 x 4
Fig 3 x 4		w/verse 6
Fig 2 x 4
Related for Hymn To The Gods Of Yore tab