Guitaretab - guitar tabs
Song name
# A B C D E F G H I J K L M N O P Q R S T U V W X Y Z

Countess - In Hate Of Christ tab

IN HATE OF CHRIST

As performed by COUNTESS on the album "The Book Of The Heretic".
Words and music by Orlok.

Normal tuning.

x = palm mute

Fig. 1
E|---------------------------------|
B|---------------------------------|
G|---------------------------------|
D|---------------------------------|
A|-------------------------5-4-5-4-|
E|-0000000000000000000000003-2-3-2-|
[ Tab from: http://www.guitaretab.com/c/countess/57192.html ]
Fig. 2
E|---------------------------------|
B|---------------------------------|
G|---------------------------------|
D|-------------------------5-4-5-4-|
A|-0000000000000000000000003-2-3-2-|
E|---------------------------------|

Fig. 3
E|---------|
B|---------|
G|---------|
D|-2-4-----|
A|-0-2-2-4-|
E|-----0-2-|

Fig. 4
E|-------------------|
B|-------------------|
G|-------------------|
D|-4---3----5-2-4----|
A|-2-5-0-4--3-0-2-5--|
E|---3---2--------3--|

Fig. 5
E|------|
B|------|
G|------|
D|------|
A|-4----|
E|-2----|
    xxx

SONG STRUCTURE

Fig 1 x 4
Fig 1 x 6		w/verse 1
Fig 2 x 1
Fig 3 x 1
Fig 4 x 2		w/chorus
Fig 5 x 1
Fig 1 x 2
Fig 1 x 6		w/verse 2
Fig 2 x 1
Fig 3 x 1
Fig 4 x 2		w/chorus
Fig 5 x 1
Fig 1 x 8		w/guitar lead
Fig 2 x 1
Fig 3 x 1
Fig 4 x 6		w/chorus (fade-out)
Related for In Hate Of Christ tab
Advertisement will be closed in 10 seconds