Song name
# A B C D E F G H I J K L M N O P Q R S T U V W X Y Z

Countess - Kneel Before The Masters Throne tab

KNEEL BEFORE THE MASTER'S THRONE

As performed by COUNTESS on the album "The Gospel Of The Horned One".
Words and music by Zιnon.

Normal tuning.

Fig. 1
E|--------------------|
B|--------------------|
G|-7--3--3-5—-5-2--2--|
D|-7--3—3--5—5--2—2-2-|
A|-5--1----3----0-----|
E|--------------------|

Fig. 2
E|----------------------------------------------|
B|----------------------------------------------|
G|-7-7757-7757-775-555555-3-3313-3313-331-2—-5--|
D|-7-7757-7757-775-555555-3-3313-3313-331-2—-5--|
A|-5-55-5-55-5-55--333333-1-11-1-11-1-11--0—-3--|
E|----------------------------------------------|

Fig. 3
E|-------------------|
B|-------------------|
G|-5-535-535-53-7788-|
D|-5-535-535-53-7788-|
A|-3-3-3-3-3-3--5566-|
E|-------------------|

Fig. 4
E|---------------------|
B|---------------------|
G|---------------------|
D|---------------------|
A|---------------------|
E|---------------------|

Fig. 5
E|---------------------|
B|---------------------|
G|-7-7757-7757-775-9—9-|
D|-7-7757-7757-775-9—9-|
A|-5-55-5-55-5-55—-7-7-|
E|---------------------|

Fig. 6
E|-----------|
B|-----------|
G|-----------|
D|---0-2-----|
A|-4-----4---|
E|---------5-|

Fig. 6
E|-----------|
B|-----------|
G|-----------|
D|---0-3-----|
A|-4-----4---|
E|---------5-|


SONG STRUCTURE

Fig 1 x 10		without distortion
Fig 1 x 5
Fig 2 x 2
Fig 3 x 3		w/verse 1
Fig 2 x 1
Fig 3 x 3		w/verse 2
Fig 2 x 1
Fig 3 x 3		w/verse 3
Fig 4 x 1		w/chorus
Fig 2 x 2
Fig 3 x 3		w/verse 4
Fig 2 x 1
Fig 3 x 3		w/verse 5
Fig 2 x 1
Fig 3 x 3		w/verse 6
Fig 4 x 1		w/chorus
Fig 5 x 15		w/guitar lead
Fig 5 x 4
Fig 6 x 4
Fig 5 x 4
Fig 6 x 4
Fig 5 x 4
Fig 6 x 4
Fig 5 x 4
Tap to rate this tab
 
# A B C D E F G H I J K L M N O P Q R S T U V W X Y Z