Guitaretab - guitar tabs
Song name
# A B C D E F G H I J K L M N O P Q R S T U V W X Y Z

Countess - The Wrath Of Satans Whore tab

THE WRATH OF SATAN'S WHORE

As performed by COUNTESS on the album "Ad Maiorem Sathanae Gloriam".
Words by Opyros and Orlok, music by Orlok.

Normal tuning.

x = palm mute

Fig. 1 (without distortion)
E|--------------------------------------------------------------------|
B|--------------------------------------------------------------------|
G|-----7-------7-------7---7--7--7------3-------3-------3---3--3-3---|
D|---7---7---7---7---7---7---7--7-----3---3---3---3---3---3---3--3----|
A|-5-------5-------5----------------1-------1-------1-----------------|
E|--------------------------------------------------------------------|

E|----------------------------------|
B|----------------------------------|
G|-----2-------2-------2---2--2--2--|
D|---2---2---2---2---2---2---2--2---|
A|-0-------0-------0----------------|
E|----------------------------------|

Fig. 2
E|-----------------------------------------------------|
B|-----------------------------------------------------|
G|-7777777777777777-3333333333333333-2222222222222222--|
D|-7777777777777777-3333333333333333-2222222222222222--|
A|-5555555555555555-1111111111111111-0000000000000000--|
E|-----------------------------------------------------|
   xxxxxxxxxxxxxxxx xxxxxxxxxxxxxxxx xxxxxxxxxxxxxxxx

Fig. 3
E|---------------------------------------------|
B|---------------------------------------------|
G|---------------------------------------------|
D|-7-77-8-88-7-77-5-55-7-77-10-1010-5-55-7-77--|
A|-7-77-8-88-7-77-5-55-7-77-10-1010-5-55-7-77--|
E|-5-55-6-66-5-55-3-33-5-55--8-8-8-3-33-5-55--|

Fig. 4
E|-------------------|
B|-------------------|
G|-------------------|
D|-7777777777777777--|
A|-7777777777777777--|
E|-5555555555555555--|
   xxxxxxxxxxxxxxxx
[ Tab from: http://www.guitaretab.com/c/countess/57197.html ]
Fig. 5
E|-------------------------------------------|
B|-------------------------------------------|
G|-------------------------------------------|
D|-5----8----7----88775----5555555555555555--|
A|-5----8----7----88775----5555555555555555--|
E|-3----6----5----66553----3333333333333333--|
                           xxxxxxxxxxxxxxxx

Fig. 6
E|-------------------------|
B|-------------------------|
G|-------------------------|
D|-7---8-7-5---7-10-5-7----|
A|-7---8-7-5---7-10-5-7----|
E|-5---6-5-3---5--83-5----|

Fig. 7
E|------------------------------------------------------------------|
B|------------------------------------------------------------------|
G|-----2-------2-------2---2--2--2------3-------3-------3---3--33--|
D|---2---2---2---2---2---2---2--2-----3---3---3---3---3---3---3--3--|
A|-0-------0-------0----------------1-------1-------1---------------|
E|------------------------------------------------------------------|

E|----------------------------------|
B|----------------------------------|
G|-----7-------7-------7---7--7--7--|
D|---7---7---7---7---7---7---7--7---|
A|-5-------5-------5----------------|
E|----------------------------------|

Fig. 8
E|-----------------------------------------------------|
B|-----------------------------------------------------|
G|-2222222222222222-3333333333333333-7777777777777777--|
D|-2222222222222222-3333333333333333-7777777777777777--|
A|-0000000000000000-1111111111111111-5555555555555555--|
E|-----------------------------------------------------|
   xxxxxxxxxxxxxxxx xxxxxxxxxxxxxxxx xxxxxxxxxxxxxxxx


SONG STRUCTURE

Fig 1 x 5
Fig 2 x 5
Fig 3 x 4		w/verse 1
Fig 4 x 1
Fig 5 x 4		w/chorus
Fig 3 x 4		w/verse 2
Fig 4 x 1
Fig 5 x 4		w/chorus
Fig 6 x 3
Fig 7 x 1
Fig 8 x 3		(fade-out)
Related for The Wrath Of Satans Whore tab