Guitaretab - guitar tabs
Song name
# A B C D E F G H I J K L M N O P Q R S T U V W X Y Z

Countess - My Sword Never Sleeps tab

MY SWORD NEVER SLEEPS

As performed by COUNTESS on the album “Holocaust Of The God Believers”.
Words and music by Orlok.

Normal tuning.

x = palm mute

Fig. 1
E|---------------------------|
B|---------------------------|
G|---------------------------|
D|-4---44444444444410-9-7----|
A|-4---44444444444410-9-7----|
E|-2---2222222222228--7-5----|
       xxxxxxxxxxxx

Fig. 2
E|--------------|
B|--------------|
G|--------------|
D|-4-445--4-442-|
A|-4-445--4-442-|
E|-2-223--2-220-|

Fig. 3
E|-----------------------------|
B|-----------------------------|
G|-----------------------------|
D|-4-4444-5-5555-4-4444-2-2222-|
A|-4-4444-5-5555-4-4444-2-2222-|
E|-2-2222-3-3333-2-2222-0-0000-|

Fig. 4
E|------------------------------|
B|------------------------------|
G|------------------------------|
D|-4--4--4--1097--4--4--4--975--|
A|-4--4--4--1097--4--4--4--975--|
E|-2--2--2--8-75--2--2--2--753--|
[ Tab from: http://www.guitaretab.com/c/countess/75236.html ]
Fig. 5
E|-----------------------------------|
B|-----------------------------------|
G|-----------------------------------|
D|-----------------------------------|
A|-------------1097-------------975--|
E|-2222222222228-75-222222222222753--|
   Xxxxxxxxxxxx     xxxxxxxxxxxx

Fig. 6
E|-----------------------------------|
B|-----------------------------------|
G|----------------------------97-----|
D|---107979---107979---107979---1097-|
A|-77-------77-------77--------------|
E|-----------------------------------|

Fig. 6b
E|-------------------------------|
B|-------------------------87----|
G|---95757---95757---95757---975-|
D|-55------55------55------------|
A|-------------------------------|
E|-------------------------------|

Fig. 7
E|---------------------|
B|---------------------|
G|---------------------|
D|-------------------4-|
A|-1097-975-1097-975-4-|
E|-8-75-753-8-75-753-2-|


SONG STRUCTURE

Fig 1 x 4		w/verse 1
Fig 2 x 4		w/chorus
Fig 1 x 4		w/verse 2
Fig 3 x 2		w/chorus
Fig 4 x 1		guitar 1 only
Fig 4 x 1
Fig 4 x 6		w/guitar lead
Fig 5 x 4		w/verse 3
Fig 2 x 2		w/chorus
Fig 6 x 4
Fig 6 x 2		guitar 2 plays fig 6b
Fig 1 x 4		w/verse 4
Fig 3 x 2		w/chorus
Fig 1 x 4		w/verse 5
Fig 5 x 4		w/guitar lead
Fig 7 x 1
Related for My Sword Never Sleeps tab