Guitaretab - guitar tabs
Song name
# A B C D E F G H I J K L M N O P Q R S T U V W X Y Z

Countess - Holocaust Of The God Believers tab

HOLOCAUST OF THE GOD BELIEVERS

As performed by COUNTESS on the album “Holocaust Of The God Believers”.
Words and music by Orlok.

Normal tuning.

x = palm mute

Fig. 1
E|-------------------------------------|
B|-------------------------------------|
G|-------------------------------------|
D|-4-4-4-55-4-4-4-55-4-4-4-77-5-5-5555-|
A|-4-4-4-55-4-4-4-55-4-4-4-77-5-5-5555-|
E|-2-2-2-33-2-2-2-33-2-2-2-55-3-3-3333-|

Fig. 2
E|--------------|
B|--------------|
G|--------------|
D|-4-4-4-5-4----|
A|-4-4-4-5-4----|
E|-2-2-2-3-2----|

Fig. 3
E|-------------------|
B|-------------------|
G|-------------------|
D|-7---9---10--12----|
A|-7---9---10--12----|
E|-5---7---8---10----|

Fig. 4
E|-----------------------|
B|-----------------------|
G|-----------------------|
D|-----------------------|
A|-12-10-12---9910107799-|
E|-10-8--10---778-8-5577-|

Fig. 5
E|----------|
B|----------|
G|----------|
D|-9-5-2----|
A|-9-5-2----|
E|-7-3-0----|

Fig. 6
E|---------------------------------|
B|---------------------------------|
G|---------------------------------|
D|-4-------2--------4------5-------|
A|-4-------2--------4------5-------|
E|-2-------0--------2------3-------|
[ Tab from: http://www.guitaretab.com/c/countess/75237.html ]
Fig. 7
E|---------------------------------|
B|---------------------------------|
G|---------------------------------|
D|-4-4-4-4-2-2-2-2-4-4-4-4-5-5-5-5-|
A|-4-4-4-4-2-2-2-2-4-4-4-4-5-5-5-5-|
E|-2-2-2-2-0-0-0-0-2-2-2-2-3-3-3-3-|
   x x x x x x x x x x x x x x x x

Fig. 8
E|----------------------------------|
B|----------------------------------|
G|----------------------------------|
D|-44444444222222224444444455555555-|
A|-44444444222222224444444455555555-|
E|-22222222000000002222222233333333-|

Fig. 9
E|-------------------------------------------|
B|-------------------------------------------|
G|-------------------------------------------|
D|-101010109---99997---77775---55554---44442-|
A|-101010109---99997---77775---55554---44442-|
E|-8-8-8-8-7---77775---55553---33332---22220-|
   x x x x     xxxx    xxxx    xxxx    xxxx


SONG STRUCTURE

Fig 1 x 2		
Fig 1 x 2		w/guitar lead
Fig 2 x 1		
Fig 1 x 2		w/verse 1
Fig 1 x 2		w/verse 2
Fig 3 x 1
Fig 4 x 4		w/chorus
Fig 1 x 1
Fig 1 x 2		w/guitar lead
Fig 2 x 1
Fig 1 x 2		w/verse 3
Fig 3 x 1
Fig 4 x 4		w/chorus
Fig 5 x 4
Fig 5 x 4		w/verse 4
Fig 5 x 4		w/verse 5
Fig 6 x 2		
Fig 7 x 2		w/verse 6
Fig 8 x 2		w/verse 7
Fig 1 x 2		w/guitar lead
Fig 3 x 1
Fig 4 x 4		w/chorus
Fig 9 x 1
Related for Holocaust Of The God Believers tab